Song name
# A B C D E F G H I J K L M N O P Q R S T U V W X Y Z

Ashes Divide - Too Late tab

-----------------------------------------------------------------------------
                             Too Late - Ashes Divide
-----------------------------------------------------------------------------
Tabbed by: darkmoon37
E-mail: drummerguy98@yahoo.com

Tuning: standard
Intro 0:00
e|--------------------------------------------------------------------------|
B|--------------------------------------------------------------------------|
G|--------------------------------------------------------------------------|
D|-------------------------9~~~~~~~~----------------------------------7-----|
A|---10-9------------9-11--------------11--12-11-12-11-12---11------7-------|
E|-9-----12-9-11---7---------------------------------------------5----------|

e|--------------------------------------------------------------------------|
B|--------------------------------------------------------------------------|
G|-----------------------------------11-----11-----11/13---14-13-14-13~~~~~~|
D|-------------------------9~~~~~~~9------9-----9---------------------------|
A|---10-9------------9-11---------------------------------------------------|
E|-9-----12-9-11---7--------------------------------------------------------|

Verse: Chords (I am not sure about these but I think it is pretty accurate)

 0:26 (If I could...)              0:53 (I would not lose...)
e|--------------------------------------------------------------------------|
B|--------------------------------------------------------------------------|
G|----------------------------------9-----7-----12---9----------------------|
D|---11-------9------7--------------9-----7-----12---9----------------------|
A|---11-------9------7--------------7-----5-----10---7----------------------|
E|---9--------7------5------------------------------------------------------|

Chorus 
(Same chords as beginning of verse, I've found that you can play the              
intro again, or mess around on these notes)
e|--------------------------------------------------------------------------|
B|--------------------------------------------------------------------------|
G|---------------13~~~~~~~~~~~~~--------------------------------------------|
D|----------11--------------------------------------------------------------|
A|--------------------------------------------------------------------------|
E|--------------------------------------------------------------------------|

Solo
e|----------------------------------------------------14--------14-------14-|
B|/12--12---12-10-9---10-10-10-9-7-------/12--12---12-------12--------12----|
G|--------------------------------------------------------------------------|
D|--------------------------------------------------------------------------|
A|--------------------------------------------------------------------------|
E|--------------------------------------------------------------------------|

e|--------------------------------------------------------------------------|
B|/12--12---12-10-9---10-10-10-9-7---9brbrbrbr-9~~~~~~~~~~~~~~~~~-----------|
G|--------------------------------------------------------------------------|
D|--------------------------------------------------------------------------|
A|--------------------------------------------------------------------------|
E|--------------------------------------------------------------------------|

2:13 (I would not lose...)
Chords
e|--------------------------------------------------------------------------|
B|--------------------------------------------------------------------------|
G|--9---7--12---------------------9---7---12-------5--7/-9------------------|
D|--9---7--12----7---5---7--------9---7---12-------5--7/-9------------------|
A|--7---5--10----7---5---7--------7---5---10-------3--5/-7------------------|
E|---------------5---3---5--------------------------------------------------|

And then Chorus, again. That's it! Happy Playing!

| /   slide up
| \   slide down
| h   hamme-on
| p   pull-off
| ~   vibrato
| +   harmonic
| x   Mute note
| b   Bend
| pb  Pre-bend
| br  Bend release
| pbr Pre-bend release
| brb Bend release bend

************************************
Tap to rate this tab
 
# A B C D E F G H I J K L M N O P Q R S T U V W X Y Z