Guitaretab - guitar tabs
Song name
# A B C D E F G H I J K L M N O P Q R S T U V W X Y Z

Ashes Of Soma - Somebody Else tab

intro: 6/8 timing

e>----5---|----5---|
B>------7-|------5-|
G>7-7-----|7-7-----|
D>-0-0-0-0|-0-0-0-0|
A>--------|--------|
E>--------|--------|

verse1: 6/8 timing

e>----5---|----5---|----5---|----5---|
B>------7-|------5-|------8-|------8-|
G>7-7-----|7-7-----|7-7-----|7-7-----|  x2
D>-0-0-0-0|-0-0-0-0|-0-0-0-0|-0-0-0-0|
A>--------|--------|--------|--------|
E>--------|--------|--------|--------|
"If I sold this guitar and a piece of my heart for you..."

pre chorus: 6/4 timing

(broken into 16th notes)
e>------------------------|------------------------|
B>--------7-----------8---|--------7---7---5-------|
G>----7-----------7-------|----7---------------7---|
D>5-----------7-----------|9-----------------------|  x2
A>------------------------|------------------------|
E>------------------------|------------------------|
“Are these dreams over rated, running from my self”

chorus: 6/4 timing

Im not sure how the chorus goes but think its D, A, B, A

verse2: 6/8 timing

e>----5---|----5---|----5---|----5---|
B>------7-|------5-|------8-|------8-|
G>7-7-----|7-7-----|7-7-----|7-7-----|  x2
D>-0-0-0-0|-0-0-0-0|-0-0-0-0|-0-0-0-0|
A>--------|--------|--------|--------|
E>--------|--------|--------|--------|
"This dream that I chose is too big for us both, its true..."

Then back to chorus

Bridge: 6/4 timing
[ Tab from: http://www.guitaretab.com/a/ashes-of-soma/149448.html ]
(instrumental broken into 16th notes)
Lead riff-e>------------------------|-------------------------------------|
      B>------------------------|-----------------------------------------|
      G>7-7-7-7-7-7-9-9-9-9-9-9-|11-11-11-11-11-11-12-12-12-12-12-12-12---|
      D>------------------------|-----------------------------------------|
      A>5-5-5-5-5-5-7-7-7-7-7-7-|9-9-9-9-9-9-10-10-10-10-10-10------------|
      E>------------------------|-----------------------------------------|

          e>--------------------------------------|
          B>--------------------------------------|
          G>11-11-11-11-11-11-11-11-11-11-11-11---|
          D>--------------------------------------|
          A>9-9-9-9-9-9-9-9-9-9-9-9---------------|
          E>--------------------------------------|

          e>--------------------------------|
          B>--------------------------------|
          G>7-7-7-7-7-7-12-12-12-12-12-12---|
          D>--------------------------------|
          A>5-5-5-5-5-5-10-10-10-10-10-10---|
          E>--------------------------------|

          e>------------------------|
          B>------------------------|
          G>7-----------------------|
          D>7-----------------------|
          A>5-----------------------|
          E>------------------------|
Let the D7 ring out then back to verse riff

6/8 timing

e>----5---|----5---|----5---|----5---|
B>------7-|------5-|------8-|------8-|
G>7-7-----|7-7-----|7-7-----|7-7-----|  x2
D>-0-0-0-0|-0-0-0-0|-0-0-0-0|-0-0-0-0|
A>--------|--------|--------|--------|
E>--------|--------|--------|--------|
"If I sold this guitar and a piece of my heart for you..."

Then back to chorus and end