Song name
# A B C D E F G H I J K L M N O P Q R S T U V W X Y Z

Ashes Remain - Right Here tab

-------------------------------------------------------------------------------
                             Right Here - Ashes Remain
-------------------------------------------------------------------------------

A beautiful song from their album "What I've Become"

Tabbed by: Griffin Waldhauser
Email: griffwaldo@gmail.com

Tuning: Drop C#

Intro:
D#|---------------------------------------------------------------------------|
A#|---------------------------------------------------------------------------|
F#|---------------------------------------------------------------------------|
C#|-------------3h5-5----10-------10p8----------------------------------------|
G#|--5-5h8-8--3--------8-----8--8------8--------------------------------------|
C#|-0-0---0--3-3---3--8-8---8--8-8----8---------------------------------------|

D#|---------------------------------------------------------------------------|
A#|---------------------------------------------------------------------------|
F#|---------------------------------------------------------------------------|
C#|-------------3h5-5----10-------10------------------------------------------|
G#|--5-5h8-8--3--------8-----8--8---------------------------------------------|
C#|-0-0---0--3-3---3--8-8---8--8-8--------------------------------------------|

Verse 1:
D#|---------------------------------------------------------------------------|
A#|---------------------------------------------------------------------------|
F#|---------------------------------------------------------------------------|
C#|-------------3h5-5----10-------10p8----------------------------------------|
G#|--5-5h8-8--3--------8-----8--8------8--------------------------------------|
C#|-0-0---0--3-3---3--8-8---8--8-8----8---------------------------------------|

D#|---------------------------------------------------------------------------|
A#|---------------------------------------------------------------------------|
F#|---------------------------------------------------------------------------|
C#|-------------3h5-5----10-------10------------------------------------------|
G#|--5-5h8-8--3--------8-----8--8---------------------------------------------|
C#|-0-0---0--3-3---3--8-8---8--8-8--------------------------------------------|

D#|---------------------------------------------------------------------------|
A#|---------------------------------------------------------------------------|
F#|---------------------------------------------------------------------------|
C#|-------------3h5-5----10-------10p8----------------------------------------|
G#|--5-5h8-8--3--------8-----8--8------8--------------------------------------|
C#|-0-0---0--3-3---3--8-8---8--8-8----8---------------------------------------|

D#|---------------------------------------------------------------------------|
A#|---------------------------------------------------------------------------|
F#|---------------------------------------------------------------------------|
C#|-------------3h5-5---10----------------------------------------------------|
G#|--5-5h8-8--3--------8------------------------------------------------------|
C#|-0-0---0--3-3---3--8-------------------------------------------------------|

Chorus:
D#|---------------------------------------------------------------------------|
A#|---------------------------------------------------------------------------|
F#|-7---7-x-7-x-3-3-x-x-------------5-5-x-x-----------------------------------|
C#|-7---7-x-7-x-3-3-x-x-3---3-x-3-x-5-5-x-x-----------------------------------| 4x
G#|-5---5-x-5-x-1-1-x-x-3---3-x-3-x-3-3-x-x-----------------------------------|
C#|---------------------3---3-x-3-x-------------------------------------------|

D#|---------------------------------------------------------------------------|
A#|---------------------------------------------------------------------------|
F#|---------------------------------------------------------------------------|
C#|-------------3h5-5----10-------10------------------------------------------|
G#|--5-5h8-8--3--------8-----8--8---------------------------------------------|
C#|-0-0---0--3-3---3--8-8---8--8-8--------------------------------------------|

Verse 2:
Same as Verse 1

Chorus

Bridge:
D#|---------------------------------------------------------------------------|
A#|---------------------------------------------------------------------------|
F#|-7---7---7---7-x-x-5---5-x-x-10--9-----------------------------------------|
C#|-7---7---7---7-x-x-5---5-x-x-10--9-----------------------------------------| 4x
G#|-5---5---5---5-x-x-3---3-x-x-8---7-----------------------------------------|
C#|---------------------------------------------------------------------------|

Chorus

End.

That's it! 

A huge thanks to Josh, Rob, Ben, Ryan, and John for being awesome!

ASHES REMAIN ROCKS!
Tap to rate this tab
# A B C D E F G H I J K L M N O P Q R S T U V W X Y Z