Song name
# A B C D E F G H I J K L M N O P Q R S T U V W X Y Z

Ashes Remain - Pain tab

-------------------------------------------------------------------------------
                             Pain - Ashes Remain
-------------------------------------------------------------------------------

An awesome solo from an awesome song from their awesome album "Last Day Breathing"

Tabbed by: Griffin Waldhauser
E-mail: griffwaldo@gmail.com

Tuning: Drop D

Solo:

e|---------------------------------------------------------------------------|
B|-55555555555555555p0-00-0h2-22-2s4-44-4s5-55-5s7-77-7s9-99-9s10-1010-10s12-|
G|---------------------------------------------------------------------------|
D|---------------------------------------------------------------------------|
A|---------------------------------------------------------------------------|
D|---------------------------------------------------------------------------|

e|-----------------------------------------------7-----------------7---4h7---|
B|-1212-12s14-1414-14s16-1616-16s17-17-17\---5-------5-7b9r7p5h7-------------|
G|---------------------------------------------------------------------------|
D|---------------------------------------------------------------------------|
A|---------------------------------------------------------------------------|
D|---------------------------------------------------------------------------|

e|-7b9-9r7-------------------------------------------------------------------|
B|---------5~\---7b8.5r7---7p5-7b9r7p5---5---7p5-t12p7p5---5-7p5-t15p7p5---5-|
G|-------------------------------------6-----------------6---------------6---|
D|---------------------------------------------------------------------------|
A|---------------------------------------------------------------------------|
D|---------------------------------------------------------------------------|

e|-----------------------4h5h6h7s9-----------------------4h5p4---4h5p4-------|
B|-7p5-t12p7p5---5---7p5-----------9---5~---7---5~---7p5-------5-------5-----|
G|-------------6------------------------------6------------------------------|
D|---------------------------------------------------------------------------|
A|---------------------------------------------------------------------------|
D|---------------------------------------------------------------------------|

e|-4h5p4---4h5p4---4h7p4---4h7p4---4h7p4---4h7p4---12h14p12----12h14p12------|
B|-------5-------5-------5-------5-------5-------5----------12----------12---|
G|---------------------------------------------------------------------------|
D|---------------------------------------------------------------------------|
A|---------------------------------------------------------------------------|
D|---------------------------------------------------------------------------|

e|-12h14p12----12h14p12----12h16p12----12h16p12----12h16p12----12h16p12------|
B|----------12----------12----------12----------12----------12----------12---|
G|---------------------------------------------------------------------------|
D|---------------------------------------------------------------------------|
A|---------------------------------------------------------------------------|
D|---------------------------------------------------------------------------|

e|-12-11-9h11p9s7-5-4-9------------------------------------------------------|
B|---------------------------------------------------------------------------|
G|---------------------------------------------------------------------------|
D|---------------------------------------------------------------------------|
A|---------------------------------------------------------------------------|
D|---------------------------------------------------------------------------|

End.

That's it!

A huge thanks to Josh, Rob, Ben, Ryan, and Jon for being awesome!

ASHES REMAIN ROCKS!
Tap to rate this tab
# A B C D E F G H I J K L M N O P Q R S T U V W X Y Z