Guitaretab - guitar tabs
Song name
# A B C D E F G H I J K L M N O P Q R S T U V W X Y Z

Ashlee Simpson - Sorry tab

-----------------------------------------------------------------------------
			     Sorry Ė Five Times August
-----------------------------------------------------------------------------
Tabbed by: muaythai1991
Tuning: Standard Capo 2

Okay, so Brad plays this song (and almost all others) with rhythmic ďpercussiveĒ strums.
those of you that donít know, itís a strum with a simultaneous palm mute, taking place
clear of the bridge and saddle. But anyway, because of the imherent complexity, Iíll let 
figure out the strumming pattern and rhythmic blank notes. Oh, and I based this tab
of this video:

http://www.youtube.com/watch?v=S7vUsYEnavQ

[ Tab from: http://www.guitaretab.com/a/ashlee-simpson/134219.html ]
Intro/Verse/1st Part of Chorus (with Chorus just palm mute regularly)
e|---7-------5-------5-------0-------0-----0-|Dont worry about making  ----|
B|---8-------7-------5-------1-------1-----0-|this last one ring too much--|
G|---7-------0-------0-------0-------0-----0-|-----------------------------|
D|---9-------x-------4-------2-0h2p0-0-----0-|-----------------------------|
A|-2/7-------6-------5-------3-------3-----0-|-----------------------------|
E|---x-------x-------x-------x-------x-----0-|-----------------------------|

Last Part of Chorus (let go of palm mute here)
e|--0-----0--------------------------------------------------------------|
B|--1-----1--------------------------------------------------------------|
G|--0-----0--------------------------------------------------------------|
D|--2-----0--------------------------------------------------------------|
A|--3-----3--------------------------------------------------------------|
E|--x-----x--------------------------------------------------------------|

Interlude
e|--0-----0---|-------|-Play these pulloffs while holding that 3 on A----|
B|--0-----0---|1p0----|-and play it as a chord (meaning donít pick those-|
G|--0-----0---|----2p0|-notes alone. Let the strum play them-------------|
D|--2-----0---|-------|--------------------------------------------------|
A|--3-----3---|-------|--------------------------------------------------|
E|--x-----x---|-------|--------------------------------------------------|

| /  slide up
| \  slide down
| h  hammer-on
| p  pull-off
| ~  vibrato
| +  harmonic
| x  Mute note
=============================================================================
Related for Sorry tab