Guitaretab - guitar tabs
Song name
# A B C D E F G H I J K L M N O P Q R S T U V W X Y Z

Ashlee Simpson - Coming Back For More tab

VERSE
                                                        
e-------------------------------------------------|  |
b-------------------------------------------------|   | 
g-3----6------------------------------------------|   | 
d-3----6----6----4--------------------------------|   |
a-1(2x)4(2x)6----4--------------------------------|   |
E-----------4(3x)2(3x)----------------------------|   |
                                                       }5X  
e-------------------------------------------------|   |
b-------------------------------------------------|   |
g-3----6---------8--------------------------------|   |
d-3----6----6----8--------------------------------|   |
a-1(2x)4(2x)6----6(3x)----------------------------|   |
E-----------4(3x)---------------------------------|  _|


+=+=+=+=+=+=+=+=+=+=+=+=+=+=+=+=+=+=+=+=+=+=+=+=+=+=

CHORUS

e-------------------------------------------------|  |
b-------------------------------------------------|   |
g-3----8---------6----5---------------------------|   |
d-3----8----6----6----5---------------------------|    }3X  
a-1(8x)6(8x)6----4(4x)3(4x)-----------------------|   |
E-----------4(8x)---------------------------------|  _|

e-------------------------------------------------|
b-------------------------------------------------|
g-3----8---------6----8---------------------------|
d-3----8----6----6----8---------------------------|
a-1(8x)6(8x)6----4(2x)6(2x)-----------------------|
E-----------4(12x)--------------------------------|

+=+=+=+=+=+=+=+=+=+=+=+=+=+=+=+=+=+=+=+=+=+=+=+=+=+=
[ Tab from: http://www.guitaretab.com/a/ashlee-simpson/65239.html ]
VERSE
                                                        
e-------------------------------------------------|  |
b-------------------------------------------------|   | 
g-3----6------------------------------------------|   | 
d-3----6----6----4--------------------------------|   |
a-1(2x)4(2x)6----4--------------------------------|   |
E-----------4(3x)2(3x)----------------------------|   |
                                                       }4X
e-------------------------------------------------|   |
b-------------------------------------------------|   |
g-3----6---------8--------------------------------|   |
d-3----6----6----8--------------------------------|   |
a-1(2x)4(2x)6----6(3x)----------------------------|   |
E-----------4(3x)---------------------------------|  _|

+=+=+=+=+=+=+=+=+=+=+=+=+=+=+=+=+=+=+=+=+=+=+=+=+=+=

CHORUS

e-------------------------------------------------|  |
b-------------------------------------------------|   |
g-3----8---------6----5---------------------------|   |
d-3----8----6----6----5---------------------------|    }3X  
a-1(8x)6(8x)6----4(4x)3(4x)-----------------------|   |
E-----------4(8x)---------------------------------|  _|

e-------------------------------------------------|
b-------------------------------------------------|
g-3----8---------6----8---------------------------|
d-3----8----6----6----8---------------------------|
a-1(8x)6(8x)6----4(2x)6(2x)-----------------------|
E-----------4(12x)--------------------------------|

+=+=+=+=+=+=+=+=+=+=+=+=+=+=+=+=+=+=+=+=+=+=+=+=+=+=

BRIDGE

e-------------------------------------------------|
b-------------------------------------------------|
g-3-----8-----3-----6-----------------------------|
d-3-----8-----3-----6----6------------------------|
a-1(16x)6(16x)1(16x)4(8x)6------------------------|
E------------------------4(16x)-------------------|

+=+=+=+=+=+=+=+=+=+=+=+=+=+=+=+=+=+=+=+=+=+=+=+=+=+=

SOLO (THIS IS THE RYTHME PART OF THE SOLO)

e-------------------------------------------------|  |
b-------------------------------------------------|   |
g-3----8---------6----5---------------------------|   |
d-3----8----6----6----5---------------------------|    }7X  
a-1(8x)6(8x)6----4(4x)3(4x)-----------------------|   |
E-----------4(8x)---------------------------------|  _|

e-------------------------------------------------|
b-------------------------------------------------|
g-3----8---------6----8---------------------------|
d-3----8----6----6----8---------------------------|
a-1(8x)6(8x)6----4(2x)6(2x)-----------------------|
E-----------4(12x)--------------------------------|

That's it!!! I wish you will like it, also if it is missing the solo.
Related for Coming Back For More tab