Ashleigh Mannix - Sally Jones tab

Great voice and a pretty simple tab.
                                     Bm     Bm
E -----0------0---------0------0--0---2-2----2-2---------|
B -----2------2---------2------2--2---3-3----3-3---------|
G -0^1----0^2-------0^2----0^2----1---4-4----4-4---------|
D --------------------------------2---4-4----4-4---------|
A -------------------------------------------------------|
E -------------------------------------------------------|

                                     Bm     Bm
E -----0------0---------0------0--0---2-2------2-4-2-----|
B -----2------2---------2------2--2---3-3----3-------3---|
G -0^1----0^2-------0^2----0^2----1---4-4--------------4-|
D --------------------------------2---4-4----------------|
A -------------------------------------------------------|
E -------------------------------------------------------|

Repeat it and breakdown.

There you go.

http://www.ashleighmannix.com/
Tap to rate this tab
 
# A B C D E F G H I J K L M N O P Q R S T U V W X Y Z