Guitaretab - guitar tabs
Song name
# A B C D E F G H I J K L M N O P Q R S T U V W X Y Z

Ashley Parker Angel - A Beautiful Lie tab

Artist: Sound method
Song: beautiful lie
Album: start over
tuning: standard

the rythm for the verse is real trick. so i suggest you go to thier website
WWW.SOUNDMETHOD.COM to listen to it.

chorus:

||---0---00--0-0-0---|-0-0-00--0-0-0-----|-------------------|
||---0---00--0-0-0---|-0-0-00--0-0-0-----|-------------------|
||---9-9-99--9-9-9-0-|-9-9-99--9-9-9-----|-------------------| repeat
||---9-9-99--9-9-9---|-9-9-99--9-9-9-----|-------------------|
||---7-7-------------|-7-7---------------|-------------------|
||-------77--9-9-7---|-----77--9-9-7-----|-------------------|


pre chorus:( lead guitar)
[ Tab from: http://www.guitaretab.com/a/ashley-parker-angel/150573.html ]
|-------------------|-------------------|------------------------------
|------99-9-7-------|------99-10-9------|-----99-9-7------99--10-9-----|
|------99-----------|------99-----9-----|-----99----------99-------11--|
|--9/11-------------|--9/11-------------|-9/11--------9/11------------9|
|-------------------|-------------------|------------------------------|
|-------------------|-------------------|------------------------------|



chorus

|-------------------|-------------------|-------------------|
|-------------------|-------------------|-------------------|
|---6666--2-1-------|----6666--2-1------|-------------------|
|---6666--2-2-------|----6666--2-2------|-444444-----77777--|
|---4444----2-------|----4444----2------|-444444-----77777--|
|-------------------|-------------------|-222222-44--55555--|




its a really good song. and is fun to play once you get the hang of it.


www.soundmethod.com 
Related for A Beautiful Lie tab