Song name
# A B C D E F G H I J K L M N O P Q R S T U V W X Y Z

Ashley Parker Angel - Feel So Alive tab

Artist: Ashley Angel Parker
Album: Soundtrack To Your Life
Song: Feel So Alive
Tabber: FlamesOfDeath11

Standard Tuning (E,A,D,G,b,e)

*Note:This is my first tab ^-^; and to me it sounds just about right.

Intro:
e|-------------------------------|
b|--12-12-12-10-10-10-8-8-8------|
G|-------------------------------| 2Xs 
D|-------------------------------|
A|-------------------------------|
E|-------------------------------|

e|-------------------------------|
b|-------------------------------|
G|--11-11-11-12-12-12-7-7-7------| 2Xs
D|-------------------------------|
A|-------------------------------|
E|-------------------------------|

Verse:
e|-------------------------------|
b|-------------------------------|
G|-------------------------------|
D|-------------------------------|
A|-------10---10------10---10----|
E|-----8----7-------7----8-------|

Pre-Chorus:
e|-------------------------|
b|-------------------------|
G|-------------------------|
D|----7--------10----------|
A|----7-x16----10-x16------|
E|----5--------8-----------|

Chorus:
e|-----------------------------------------|
b|-----------------------------------------|
G|----5------------------------------------|
D|----5-x16----5--------7--------3---------| 2xs
A|----3--------5-x16----7-x16----3-x16-----|
E|-------------3--------5--------1---------|

at one of the parts during the chorus it goes:
e|---------------------|
b|---------------------|
G|----10-9--10---------|
D|----10-9--10-10------|
A|----8--7--8--10------|
E|-------------8-------|

Intro

Verse

Chorus 2xs

Bridge:
e|-------------------------------|
b|-------------------------------|
G|-------------------------------|
D|----2/15----------2/15---------|
A|-----------2/19----------2/16--|
E|-------------------------------|

Chorus 2xs

Intro till the end of the songs


Feel free to ask questions at my email FlamesOfDeath1127@yahoo.com 



Tap to rate this tab
 
# A B C D E F G H I J K L M N O P Q R S T U V W X Y Z