Song name
# A B C D E F G H I J K L M N O P Q R S T U V W X Y Z

Ashley Tisdale - Kiss The Girl tab

Standard tuning (EADGBe)
This is the intro, but it's also played after the second chorus (about 2:13). This is my 
tab, and comments are appreciated. =)

Guitar 1:
e|------------------------------------------------------|
B|--------1---0-1----3-1---------1---0-1----5-3---------|
G|----0h2---0-----2------2---0h2---0-----2------5-4s2---|
D|--3----------------------3----------------------------|
A|------------------------------------------------------|
E|------------------------------------------------------|

"Oooh, kiss the giiirl, kiss the girl"

e|------------------------------------------------------|
B|--------1---0-1----3-1---------1---0-1~---------------|
G|----0h2---0-----2------2---0h2---0--------------------|
D|--3----------------------3----------------------------|
A|------------------------------------------------------|
E|------------------------------------------------------|

h = hammer on
s = slide
~ = vibrato
Tap to rate this tab
# A B C D E F G H I J K L M N O P Q R S T U V W X Y Z