Song name
# A B C D E F G H I J K L M N O P Q R S T U V W X Y Z

Ashley Tisdale - Its Alright Its Ok tab

Artist: Ashley Tisdale
Album: Guilty Pleasure
Tuning: Standard EADGBE
Tabber: seb53

/ - SLIDE UP
\ - SLIDE DOWN
~ - HOLD
x - Mute

This is a great little song, im not going to deny so i though id play around with it and 
is what i managed to come up with hope you enjoy.

You can play it acousticly as well so ill add another tab after this

Intro:

e---------------------------------------------|
B---------------------------------------------|
G------------6-6-6-6-6------------------------|  x1
D-7-7-7-7-7--6-6-6-6-6--4-4-4-4-4--x-x-x-x----|
A-7-7-7-7-7--4-4-4-4-4--4-4-4-4-4--2-2-2-2----|
E-5-5-5-5-5--x-x-x-x-x--2-2-2-2-2--3-3-3-3----|

This should be lightly palm muted and keep

Verse:
(Repeat Intro)

e---------------------------------------------|
B---------------------------------------------|
G------------6-6-6-6-6------------------------|  x2
D-7-7-7-7-7--6-6-6-6-6--4-4-4-4-4--x-x-x-x----|
A-7-7-7-7-7--4-4-4-4-4--4-4-4-4-4--2-2-2-2----|
E-5-5-5-5-5--x-x-x-x-x--2-2-2-2-2--3-3-3-3----|

on the third time through the verse before the chorus end on

e---
B---
G---
D-4~
A-4~
E-2~

Chorus:

e---------------------------------------------|
B---------------------------------------------|
G------------66666666--------------777777777--|
D-777777777--66666666--444444444---777777777--| x4 hold the last chord
A-777777777--44444444--444444444---555555555--|
E-555555555------------222222222--------------|

2nd Verse:

e---------------------------------------------|
B---------------------------------------------|
G------------6-6-6-6-6------------------------|  x2
D-7-7-7-7-7--6-6-6-6-6--4-4-4-4-4--x-x-x-x----|
A-7-7-7-7-7--4-4-4-4-4--4-4-4-4-4--2-2-2-2----|
E-5-5-5-5-5--x-x-x-x-x--2-2-2-2-2--3-3-3-3----|

on the third time through the verse before the chorus end on

e---
B---
G---
D-4~
A-4~
E-2~

2nd Chorus:

Chorus:

e---------------------------------------------|
B---------------------------------------------|
G------------66666666--------------777777777--|
D-777777777--66666666--444444444---777777777--| x4 hold the last chord
A-777777777--44444444--444444444---555555555--|
E-555555555------------222222222--------------|

Bridge:
(Dont Waste you fiction tears)

e-----------------------------------|
B-----------------------------------|
G-4-4-4-4-4-4-4/6/7-7-7-7-7-7-7\6\4-|
D-4-4-4-4-4-4-4/6/7-7-7-7-7-7-7\6\4-|
A-2-2-2-2-2-2-2/4/5-5-5-5-5-5-5\4\2-|
E-----------------------------------|

e--------------------|
B--------------------|
G-4-4-4-4-4-4-4/6/7~-|
G-4-4-4-4-4-4-4/6/7~-|
A-2-2-2-2-2-2-2/4/5~-|
E--------------------|

Outro:
(Key Change)

e-------------------------------------------------------|
B-------------------------------------------------------|
G-44444444444-888888888888---------------11111111111111-|
D-44444444444-888888888888-6666666666666-22222222222222-|
A-22222222222-666666666666-6666666666666-22222222222222-|
E--------------------------4444444444444----------------|

FINISH ON AN E Chord
Tap to rate this tab
# A B C D E F G H I J K L M N O P Q R S T U V W X Y Z