Ashley Tisdale - Kiss The Girl tab

the whole song goes like this. not in the same key as the regular song but this is 
what i got by ear

e|-----0--0--2--4--0--0--0--0--0--2--4-----5--5--5--5-----------5--5--5--5---|
B|--------------------------------------2--------------5--2--2---------------|
G|---------------------------------------------------------------------------|
D|---------------------------------------------------------------------------|
A|---------------------------------------------------------------------------|
E|---------------------------------------------------------------------------|

e|---7--7--9--7--7--5--5--4--5--4--5--4--5--4-----7--7--7--7--7--7--9--11----|
B|---------------------------------------------5-----------------------------|
G|---------------------------------------------------------------------------|
D|---------------------------------------------------------------------------|
A|---------------------------------------------------------------------------|
E|---------------------------------------------------------------------------|

e|12--9--9--9--9--9--7--7--7--7--9--9--7--7--7--7--7--7--7--7--9--11--12-----|
B|---------------------------------------------------------------------------|
G|---------------------------------------------------------------------------|
D|---------------------------------------------------------------------------|
A|---------------------------------------------------------------------------|
E|---------------------------------------------------------------------------|

e|--9--9--9--9--7--7-----------------------0-----4---------------------------|
B|--------------------7--7--9--7--5--5--2-----2-----2--2--0------------------|
G|---------------------------------------------------------------------------|
D|---------------------------------------------------------------------------|
A|---------------------------------------------------------------------------|
E|---------------------------------------------------------------------------|

enjoy :D
Tap to rate this tab
 
# A B C D E F G H I J K L M N O P Q R S T U V W X Y Z