Song name
# A B C D E F G H I J K L M N O P Q R S T U V W X Y Z

Ashley Tisdale - Be Good To Me tab

Help us improve GuitareTab! Take a short survey!
I know the song is done with a synthesizer, so I changed it into guitar. It sounds
but I'm not totally positive. This is the edited version without the rap in the song. 
can
the 1st and 2nd parts together if you dont have 2 guitars to play together. This song is 
F major. Here it is. Please rate it!
Tabbed by: ~Melody~

Gtr.1 INTRO

e----0-1-3---0-1-3-|
B--3-------3-------|
G------------------|
D------------------|
A------------------|
E------------------|

Gtr.2 INTRO (this part is faster than Gtr.1)

e----0-1--0-1-3--1-3-5--5-8-10--|
B--3----------------------------|
G-------------------------------|
D-------------------------------|
A-------------------------------|
E-------------------------------|

Gtr.1 VERSE     (play this whole riff twice through(both Gtr. 1+2)
~~~~~~~~~~~~~~~~~~~~~~~~~~~~~~~~~~~~~~~~~~~~~~~~~~~~~~~~~~~~~~~~~~~~~~~~
e---------1-1-1-1-3-3-3-3-1-1-1-1-                e-------0-1-1-1-3-|
B-3-3-3-3-------------------------                B-3-3-3-----------|
G---------------------------------  x2 then play  G-----------------|  x2 then
D---------------------------------                D-----------------|  intro
A---------------------------------                A-----------------|  into the
E---------------------------------                E-----------------|  chorus


Gtr.2 VERSE  (follow same pattern as top)

e---------------------------------                e-------0-1-1-1-0-|
B-3-3-3-3-3-3-3-3-3-3-3-3-3-3-3-3-                B-3-3-3-----------|
G---------------------------------                G-----------------|
D---------------------------------                D-----------------|
A---------------------------------                A-----------------|
E---------------------------------                E-----------------|

Gtr. 1+2 CHORUS
  The chorus is actually the same part as the verse, so just play the verse.

Theres not much to play in the bridge, so have fun!
Related for Be Good To Me tab