Song name
# A B C D E F G H I J K L M N O P Q R S T U V W X Y Z

Ashley Tisdale - Unlove You tab

Unlove You
Elise Estrada

tabbed by L.j34n
02-01-08

UPDATE
07-17-08

Standard Tuning

I love this song. I can't believe nobody has tabbed it =/
I learned this by ear & hopefully it sounds good to you :)


VERSE
e|--------------------------------0-----------------------|
B|----------3-T--------3-T------3---3---------0h1p0-------|
G|--------0---A------0---A----2-------------2-------0-----|      X4
D|------2-----P----2-----P--0-------------2-----------2---|
A|---------------3----------------------0-----------------|
E|---0----------------------------------------------------|


PRE-CHORUS
e|--------------------------------0-----------------------|
B|----------3-T--------3-T------3---3---------0h1p0-------|
G|--------0---A------0---A----2-------------2-------0-----|      X1
D|------2-----P----0-----P--0-------------2-----------2---|
A|----3----------2----------------------0-----------------|
E|--------------------------------------------------------|


e|--------------------------------0-0h2--|
B|----------3-T--------3-T------3---3----|
G|--------0---A------0---A----2-----2----|
D|------2-----P----0-----P--0------------|         X1
A|----3----------2-----------------------|
E|---------------------------------------|


~CHORUS~ 
Em--C--D--Am   X4

    Em C  D  Am
e|--7--3--5--5--|
B|--8--5--7--5--|
G|--9--5--7--5--| 
D|--9--5--7--7--|        
A|--7--3--5--7--|
E|--x--x--x--5--|




Please RATE &/or COMMENT.

http://www.eliseestradasource.com/
Tap to rate this tab
 
# A B C D E F G H I J K L M N O P Q R S T U V W X Y Z