Song name
# A B C D E F G H I J K L M N O P Q R S T U V W X Y Z

Ashtaroth - Distant Land tab

Before song starts.
Voice:
What is best in life
Crush the enemys
See them driven Before You
and the levitaion of the women

Intro: 8x
Gtr.1
>-------------------<   Gtr.2 comes in on 5th time
>-------------------<
>-------------------<
>-------------------<
>--------7-------8--<
>-5-5-5-5-5-5-5-5---<

Gtr.2  4x
>-------------------<
>-------------------<
>-------------------<
>-------------------<
>--------7-------8--<
>-5-5-5-5-5-5-5-5---<


Pre-Verse:4x
Gtr. 1
>-----------------------------------------------------------------------<
>-----------------------------------------------------------------------<
>-7-7-7-7-8-8-7-7-5-5-5-5-3-3-5-5-7-7-0-7-7-7-7-8-8-7-7-5-5-7-7-5-5-3-3-<
>-----------------------------------------------------------------------<
>-----------------------------------------------------------------------<
>-----------------------------------------------------------------------<

Gtr. 2
>-----------------------------------------------------------------------<
>-----------------------------------------------------------------------<
>-----------------------------------------------------------------------<
>-----------------------------------------------------------------------<
>-7-------8--7---5------3---5---7--0----7-------8--7---5------3---5---7-<
>-5-------5--5---3------1---3---5--0----5-------5--5---3------1---3---5-<

Verse: 4x
Both Gtr.
>-------------------------------------<
>-------------------------------------<
>-------------------------------------<
>-------------------------------------<
>-7-7-7-7-7-8-8-8-8-8-5-5-3-\-5-\-7-0-<
>-5-5-5-5-5-5-5-5-5-5-3-3-1-\-3-\-5-0-<
    . . . .   . . . .

Chorus 1:
Both Gtr. 2x
>-----------------------------------------------------------------------<
>-----------------------------------------------------------------------<
>-----------------------------------------------------------------------<
>-7-7-7-7-8-8-7-7-5-5-5-5-3-3-5-5-7-7-0-7-7-7-7-8-8-7-7-5-5-7-7-5-5-3-3-<
>-----------------------------------------------------------------------<
>-----------------------------------------------------------------------<

Both Gtr. 2x
>-----------------------------------------------------------------------|
>-----------------------------------------------------------------------|
>-9-9-9-9-10-10-10-10-9-9-7-7-7-7-5-5-7-7-9-9-0-9-9-9-9-10-10-10-10-9-9-|
>-----------------------------------------------------------------------|
>-----------------------------------------------------------------------|
>-----------------------------------------------------------------------|

Cont.
>---------------------<
>---------------------<
>---------------------<
>-7-7-7-7-5-5-7-7-9-9-<
>---------------------<
>---------------------<

Verse 2: 4x
Both Gtr.
>-------------------------------------<
>-------------------------------------<
>-------------------------------------<
>-------------------------------------<
>-7-7-7-7-7-8-8-8-8-8-5-5-3-\-5-\-7-0-<
>-5-5-5-5-5-5-5-5-5-5-3-3-1-\-3-\-5-0-<
    . . . .   . . . .

Chorus 2
Both Gtr. 2x
>-----------------------------------------------------------------------<
>-----------------------------------------------------------------------<
>-----------------------------------------------------------------------<
>-7-7-7-7-8-8-7-7-5-5-5-5-3-3-5-5-7-7-0-7-7-7-7-8-8-7-7-5-5-7-7-5-5-3-3-<
>-----------------------------------------------------------------------<
>-----------------------------------------------------------------------<

Both Gtr. 2x
>-----------------------------------------------------------------------|
>-----------------------------------------------------------------------|
>-9-9-9-9-10-10-10-10-9-9-7-7-7-7-5-5-7-7-9-9-0-9-9-9-9-10-10-10-10-9-9-|
>-----------------------------------------------------------------------|
>-----------------------------------------------------------------------|
>-----------------------------------------------------------------------|

Cont.
>---------------------<
>---------------------<
>---------------------<
>-7-7-7-7-5-5-7-7-9-9-<
>---------------------<
>---------------------<

Solo. Sorry Don't Have Time to Tab

 ehind Solo
>-------------------------------------<
>-------------------------------------<
>-------------------------------------<
>-------------------------------------<
>-7-7-7-7-7-8-8-8-8-8-5-5-3-\-5-\-7-0-<
>-5-5-5-5-5-5-5-5-5-5-3-3-1-\-3-\-5-0-<
    . . . .   . . . .
This Songs solo switches between both gtrs,the Same With rythym guitats.

then back to chorus. a little different.

Chorus 3:
Both Gtr. 2x
>-----------------------------------------------------------------------|
>-----------------------------------------------------------------------|
>-9-9-9-9-10-10-10-10-9-9-7-7-7-7-5-5-7-7-9-9-0-9-9-9-9-10-10-10-10-9-9-|
>-----------------------------------------------------------------------|
>-----------------------------------------------------------------------|
>-----------------------------------------------------------------------|

Cont.
>---------------------<
>---------------------<
>---------------------<
>-7-7-7-7-5-5-7-7-9-9-<
>---------------------<
>---------------------<

Verse 3: 4x
Both Gtr.
>-------------------------------------<
>-------------------------------------<
>-------------------------------------<
>-------------------------------------<
>-7-7-7-7-7-8-8-8-8-8-5-5-3-\-5-\-7-0-<
>-5-5-5-5-5-5-5-5-5-5-3-3-1-\-3-\-5-0-<
    . . . .   . . . .

Chorus 4:
Both Gtr. 2x
>-----------------------------------------------------------------------<
>-----------------------------------------------------------------------<
>-----------------------------------------------------------------------<
>-7-7-7-7-8-8-7-7-5-5-5-5-3-3-5-5-7-7-0-7-7-7-7-8-8-7-7-5-5-7-7-5-5-3-3-<
>-----------------------------------------------------------------------<
>-----------------------------------------------------------------------<

Both Gtr. 2x
>-----------------------------------------------------------------------|
>-----------------------------------------------------------------------|
>-9-9-9-9-10-10-10-10-9-9-7-7-7-7-5-5-7-7-9-9-0-9-9-9-9-10-10-10-10-9-9-|
>-----------------------------------------------------------------------|
>-----------------------------------------------------------------------|
>-----------------------------------------------------------------------|

Cont.
>---------------------<
>---------------------<
>---------------------<
>-7-7-7-7-5-5-7-7-9-9-<
>---------------------<
>---------------------<

Then this
outro: Repeat 8x
Gtr.1
>-----------------------------------------------------------------------|
>-----------------------------------------------------------------------|
>-9-9-9-9-10-10-10-10-9-9-7-7-7-7-5-5-7-7-9-9-0-9-9-9-9-10-10-10-10-9-9-|
>-----------------------------------------------------------------------|
>-----------------------------------------------------------------------|
>-----------------------------------------------------------------------|

Cont.
>---------------------<
>---------------------<
>---------------------<
>-7-7-7-7-5-5-7-7-9-9-<
>---------------------<
>---------------------<

Gtr. 2
>-----------------------------------------------------------------------<
>-----------------------------------------------------------------------<
>-----------------------------------------------------------------------<
>-----------------------------------------------------------------------<
>-7-------8--7---5------3---5---7--0----7-------8--7---5------3---5---7-<
>-5-------5--5---3------1---3---5--0----5-------5--5---3------1---3---5-<

Not finished. i'll finish later i have to go see my girl. peace.
ASHTAOTH FUCKING RULES THIS SHIT???????????????????????????????
Tap to rate this tab
 
# A B C D E F G H I J K L M N O P Q R S T U V W X Y Z