Song name
# A B C D E F G H I J K L M N O P Q R S T U V W X Y Z

Ashtaroth - Breath Of The Gone tab

 THIS MY FIRST TIME TABBING A SONG, SO TAKE IT EASY ON ME ALRIGHT.
 IF YOU NEVER HEARD OF THESE GUYS YOU SHOULD CHECK EM OUT, YOULL LOVE EM
 OR YOU ALSO CAN CHECK OUT SOME VIDEOS ON YOUTUBE ASHTAROTH NOT ASHTAROTH16   OR GO TO 
MYSPACE PAGE.

Ill try to tab there other songs:
WHEN THE COLD OF WINTER DAWNS
LEGIONS OF DARKNESS
SHADOWS TO BE
DARKNESS AND BEYOND
I UNLEASH
INFERNAL BLOODLINE
ANGEL OF LUST ANGEL OF DEATH

AS YOU KNOW IM A HUGE ASHTAROTH FAN. YOU DONT HAVE TO PLAY IN STANDARD, YOU CAN PLAY IN 
IF YOU LIKE ILL TAB THOSE LATER.
OKAY HERE YOU GO, WELL FIRST LISTEN TO THERE SONG TO GET TIMING AND
HOW MANY TIME EASCH RIFF IS PLAYED.

Intro:
>-------------------------------------------------------------------<
>-------------------------------------------------------------------<
>-------------------------------------------------------------------<
>-8-8-8-8-8-8-8-8-9-9-9-9-9-9-9-9---6-6-6-6---4-4-4---6-6-6---8-8-8-<
>-6-6-6-6-6-6-6-6-6-6-6-6-6-6-6-6-0-4-4-4-4-0-2-2-2-0-4-4-4-0-6-6-6-<
>-------------------------------------------------------------------<

Pre-Verse:
>-----------------------------------------------------------<
>-----------------------------------------------------------<
>---------------------------------------------4"-----6"-----<
>-6"------8"-6"------8"-6"------8"-4"------2"-----4"-----6"-<
>-----------------------------------------------------------<
>-----------------------------------------------------------<

Verse I:
>-------------------------------------------------------------------<
>-------------------------------------------------------------------<
>-------------------------------------------------------------------<
>-8-8-8-8-8-8-8-8-9-9-9-9-9-9-9-9---6-6-6-6---4-4-4---6-6-6---8-8-8-<
>-6-6-6-6-6-6-6-6-6-6-6-6-6-6-6-6-0-4-4-4-4-0-2-2-2-0-4-4-4-0-6-6-6-<
>-------------------------------------------------------------------<

Chorus I:
>-----------------------------------------------------------<
>-----------------------------------------------------------<
>---------------------------------------------4"-----6"-----<
>-6"------8"-6"------8"-6"------8"-4"------2"-----4"-----6"-<
>-----------------------------------------------------------<
>-----------------------------------------------------------<

Verse II:
>-------------------------------------------------------------------<
>-------------------------------------------------------------------<
>-------------------------------------------------------------------<
>-8-8-8-8-8-8-8-8-9-9-9-9-9-9-9-9---6-6-6-6---4-4-4---6-6-6---8-8-8-<
>-6-6-6-6-6-6-6-6-6-6-6-6-6-6-6-6-0-4-4-4-4-0-2-2-2-0-4-4-4-0-6-6-6-<
>-------------------------------------------------------------------<

Chorus III:
>--------------------------------------------------------------<
>--------------------------------------------------------------<
>---------------------------------------------4"-----6"-----8"-<
>-6"------8"-6"------8"-6"------8"-4"------2"-----4"-----6"----<
>--------------------------------------------------------------<
>--------------------------------------------------------------<

Verse IV:
>-------------------------------------------------------------------<
>-------------------------------------------------------------------<
>-------------------------------------------------------------------<
>-8-8-8-8-8-8-8-8-9-9-9-9-9-9-9-9---6-6-6-6---4-4-4---6-6-6---8-8-8-<
>-6-6-6-6-6-6-6-6-6-6-6-6-6-6-6-6-0-4-4-4-4-0-2-2-2-0-4-4-4-0-6-6-6-<
>-------------------------------------------------------------------<

Bridge:
>------------------------------------------------------I-------<
>------------------------------------------------------I-------<
>-8--------------------4--------------------6----------I--8----<
>-8--------------------4--------------------6----------I--8----<
>-6--------------------2--------------------4----------I--6----<
>------------------------------------------------------I-------<

Intrulude:  unsure about this part.
>--------------------------------------------------------------<
>--------------------------------------------------------------<
>---------------------------------------------4"-----6"-----8"-<
>-6"------8"-6"------8"-6"------8"-4"------2"-----4"-----6"----<
>--------------------------------------------------------------<
>--------------------------------------------------------------<

Chorus IV:
>--------------------------------------------------------------<
>--------------------------------------------------------------<
>---------------------------------------------4"-----6"-----8"-<
>-6"------8"-6"------8"-6"------8"-4"------2"-----4"-----6"----<
>--------------------------------------------------------------<
>--------------------------------------------------------------<

Solo: Sorry don't have time. heres the rythym for both gtrs.
>--------------------------------------------------------------<
>--------------------------------------------------------------<
>---------------------------------------------4"-----6"-----8"-<
>-6"------8"-6"------8"-6"------8"-4"------2"-----4"-----6"----<
>--------------------------------------------------------------<
>--------------------------------------------------------------<

After solo:  Just Repeat a couple of times Then.......
>--------------------------------------------------------------<
>--------------------------------------------------------------<
>---------------------------------------------4"-----6"-----8"-<
>-6"------8"-6"------8"-6"------8"-4"------2"-----4"-----6"----<
>--------------------------------------------------------------<
>--------------------------------------------------------------<

End on:
>------------------------------------------<
>------------------------------------------<
>-8----------------------------------------<
>-8----------------------------------------<
>-6----------------------------------------<
>------------------------------------------<

Enjoy, gots to go.

  OHHHHHHH HHHHHHHHHHHHAAAAAAAAIIIIILLLL ASHTAROTH
       ASHTAROTH RULES THIS SHIT??????????????????
Tap to rate this tab
 
# A B C D E F G H I J K L M N O P Q R S T U V W X Y Z