Song name
# A B C D E F G H I J K L M N O P Q R S T U V W X Y Z

Ashtaroth - Shadows To Be tab

This song should be pretty easy to play.
Just listen to song for timing.
The Tuning as long as it is standard.

Intro:
>---------------------------<
>---------------------------<
>---------------------------<
>-7--------8--7--3--------5-<
>-5--------5--5--1--------3-<
>---------------------------<

Pre-Verse:  4x
Gtr. 1
>----------------------------------------------------------------<
>----------------------------------------------------------------<
>-2------2------2------2------7------7------7------7-------10p.h-<
>--3-2-3--3-2-3--3-2-3--3-2-3--8-7-8--8-7-8--8-7-8--8-7-8--------<
>----------------------------------------------------------------<
>----------------------------------------------------------------<
   . . .  . . .  . . .  . . .  . . .  . . .  . . .  . . .

Gtr. 2  4x                       1,2,3                                4
>-----------------------------I-----------------------------------I--------<
>-----------------------------I-----------------------------------I--------<
>-----------------------------I-----------------------------------I--------<
>-----------------------------I-----------------------------------I--------<
>-7-7-7-7-7-7-7-7-7-7-7-7-7-7-I-3-3-3-3-3-3-3-5-5-5-5-5-5-5-5-5-5-I-3"--5"-<
>-5-5-5-5-5-5-5-5-5-5-5-5-5-5-I-1-1-1-1-1-1-1-3-3-3-3-3-3-3-3-3-3-I-1"--3"-<
  . . . . . . . . . . . . . . . . . . . . . . . . . . . . . . .

Verse: 4x
both gtrs.
>----------------------------------------------|
>----------------------------------------------|
>----------------------------------------------|
>-7-------7-------7----------------------------|
>-5-5-5-5-5-5-5-5-5-7"-8"-10"-7"-8"-10"--------|
>---------------------------------------10"-8"-|
    . . .   . . .

Cont.
>------------------------------------------------<
>------------------------------------------------<
>------------------------------------------------<
>-7-------7-------7------------------------------<
>-5-5-5-5-5-5-5-5-5-7"-8"-10"-7"-8"-10"-8"-\-12"-<
>------------------------------------------------<
    . . .   . . .


Chorus:
Gtr.1                               3x
>---------------------------------------<
>---------------------------------------<
>---------------------------------------<
>-7-7-7-7-7-7-7---8---7---5---4--3----5-<
>-5-5-5-5-5-5-5-5---5---7---7----1----3-<
>---------------------------------------<
  . . . . . . . .   .   .   .
Gtr.2                               3x
>---------------------------------------<
>---------------------------------------<
>---------------------------------------<
>---------------------------------------<
>-7-7-7-7-7-7-7---8---7---5---4--3----5-<
>-5-5-5-5-5-5-5-5---5---7---7----1----3-<
  . . . . . . . .   .   .   .

Both Gtrs.
>---------------------------------------------------------<
>---------------------------------------------------------<
>---------------------------------------------------------<
>-------------------------8"-7"-5"-3"-8"-7"-5"-3"--3----5-<
>-8"-7"-5"-3"-8"-7"-5"-3"--------------------------1----3-<
>---------------------------------------------------------<


Verse:  4x
both gtrs.
>----------------------------------------------|
>----------------------------------------------|
>----------------------------------------------|
>-7-------7-------7----------------------------|
>-5-5-5-5-5-5-5-5-5-7"-8"-10"-7"-8"-10"--------|
>---------------------------------------10"-8"-|
    . . .   . . .

Cont.
>------------------------------------------------<
>------------------------------------------------<
>------------------------------------------------<
>-7-------7-------7------------------------------<
>-5-5-5-5-5-5-5-5-5-7"-8"-10"-7"-8"-10"-8"-\-12"-<
>------------------------------------------------<
    . . .   . . .

Chorus:
Gtr.1                              3x
>---------------------------------------<
>---------------------------------------<
>---------------------------------------<
>-7-7-7-7-7-7-7---8---7---5---4--3----5-<
>-5-5-5-5-5-5-5-5---5---7---7----1----3-<
>---------------------------------------<
  . . . . . . . .   .   .   .
Gtr.2                              3x
>---------------------------------------<
>---------------------------------------<
>---------------------------------------<
>---------------------------------------<
>-7-7-7-7-7-7-7---8---7---5---4--3----5-<
>-5-5-5-5-5-5-5-5---5---7---7----1----3-<
  . . . . . . . .   .   .   .

Both Gtrs.
>---------------------------------------------------------<
>---------------------------------------------------------<
>---------------------------------------------------------<
>-------------------------8"-7"-5"-3"-8"-7"-5"-3"--3----5-<
>-8"-7"-5"-3"-8"-7"-5"-3"--------------------------1----3-<
>---------------------------------------------------------<

Solo:
Sorry. Don't Know.

Rythym:
>----------------------------------------------|
>----------------------------------------------|
>----------------------------------------------|
>-7-------7-------7----------------------------|
>-5-5-5-5-5-5-5-5-5-7"-8"-10"-7"-8"-10"--------|
>---------------------------------------10"-8"-|
    . . .   . . .

Cont.
>------------------------------------------------<
>------------------------------------------------<
>------------------------------------------------<
>-7-------7-------7------------------------------<
>-5-5-5-5-5-5-5-5-5-7"-8"-10"-7"-8"-10"-8"-\-12"-<
>------------------------------------------------<
    . . .   . . .

>---------------------------------------<
>---------------------------------------<
>---------------------------------------<
>---------------------------------------<
>-7-7-7-7-7-7-7---8---7---5---4--3----5-<
>-5-5-5-5-5-5-5-5---5---7---7----1----3-<
  . . . . . . . .   .   .   .

Then Back to the chorus alittle different.
Both Gtrs.
>--------------------------------------------------------------<
>--------------------------------------------------------------<
>--------------------------------------------------------------<
>-------------------------8"-7"-5"-3"-8"-7"-5"-3"--3----5----7-<
>-8"-7"-5"-3"-8"-7"-5"-3"--------------------------1----3----5-<
>--------------------------------------------------------------<

  IF YOU YOU SEEN THESE GUYS WITH ROTTING CHRIST, AND BELPHEGOR LET ME KNOW.
          PEACE..........................................................

TP  - trem. picking
  . - palm muting
p.h -Pich Harmonic
Tap to rate this tab
# A B C D E F G H I J K L M N O P Q R S T U V W X Y Z