Song name
# A B C D E F G H I J K L M N O P Q R S T U V W X Y Z

Ashtaroth - Legions Of Darkness tab

Intro:  2x
Gtr. 2
>-----------------------------------I------<
>-----------------------------------I------<
>-----------------------------------I------<
>-----------------------------------I------<
>-----------------------------------I------<
>-5"--6"--5"--8"--5"--6"--5"h6"p5"--I------<

Gtr. 1
>-----------------------------------I------<
>-----------------------------------I------<
>-----------------------------------I------<
>-----------------------------------I------<
>-----------------------------------I--3-3-<
>-----------------------------------I--1-1-<

Intro II: 4x
Both guitars
>-----------------------------------I------<
>-----------------------------------I------<
>-----------------------------------I------<
>-----------------------------------I------<
>-----------------------------------I--3-3-<
>-5"--6"--5"--8"--5"--6"--5"h6"p5"--I--1-1-<

Pre-Verse:3x
Both Guitars:
>-------------------------------------------<
>-------------------------------------------<
>-------------------------------------------<
>--------3-p-2-p-0--------------------------<
>-7-7-7-------------3-3-3-3-3-3-5-5-5-5-5-5-<
>-5-5-5-------------1-1-1-1-1-1-3-3-3-3-3-3-<
                    . . . . . . . . . . . .

Verse:4x
Both guitars
>-----------------------------------I------<
>-----------------------------------I------<
>-----------------------------------I------<
>-----------------------------------I------<
>-----------------------------------I--3-3-<
>-5"--6"--5"--8"--5"--6"--5"h6"p5"--I--1-1-<

Pre-Chorus: 4x
Both Guitars:
>-------------------------------------------<
>-------------------------------------------<
>-------------------------------------------<
>--------3-p-2-p-0--------------------------<
>-7-7-7-------------3-3-3-3-3-3-5-5-5-5-5-5-<
>-5-5-5-------------1-1-1-1-1-1-3-3-3-3-3-3-<
                    . . . . . . . . . . . .

Chorus: 2x
>-------------------------------------------------------------------------<
>-------------------------------------------------------------------------<
>-------------------------------------------------------------------------<
>-------------------------------------------------------------------------<
>-7-7-5"-7"-8"-5"-7"--7-7-5"-7"-8"-5"--7-7-5"-7"-8"-7"-5"-3"-5"-3"-2"-0"--<
>-5-5-----------------5-5--------------5-5--------------------------------<

Verse: 4x
Both guitars
>-----------------------------------I------<
>-----------------------------------I------<
>-----------------------------------I------<
>-----------------------------------I------<
>-----------------------------------I--3-3-<
>-5"--6"--5"--8"--5"--6"--5"h6"p5"--I--1-1-<

Pre-Chorus: 4x
Both Guitars:
>-------------------------------------------<
>-------------------------------------------<
>-------------------------------------------<
>--------3-p-2-p-0--------------------------<
>-7-7-7-------------3-3-3-3-3-3-5-5-5-5-5-5-<
>-5-5-5-------------1-1-1-1-1-1-3-3-3-3-3-3-<
                    . . . . . . . . . . . .

Chorus: 2x
>-------------------------------------------------------------------------<
>-------------------------------------------------------------------------<
>-------------------------------------------------------------------------<
>-------------------------------------------------------------------------<
>-7-7-5"-7"-8"-5"-7"--7-7-5"-7"-8"-5"--7-7-5"-7"-8"-7"-5"-3"-5"-3"-2"-0"--<
>-5-5-----------------5-5--------------5-5--------------------------------<

Solo: okay i actually have but it dosent sound close it only took me 5 min.
      so dont judge me its my first solo, it sound close to me.
      i have the solo tabbed two other ways but this sounds closer.
      maybe you can fix it.on the solo there may be errors
      but let me know so i can fix it.

Solo:
Gtr. 1
>-/12-10~-10"-12"-14"-12"-10"-12~------------------------------------|
>---------------------------------/14"-12"-10"-9"-10"-12"-10"-9"-10~-|
>--------------------------------------------------------------------|
>--------------------------------------------------------------------|
>--------------------------------------------------------------------|
>--------------------------------------------------------------------|

Gtr.2
>--------------------------------------------------------------------|
>--------------------------------------------------------------------|
>--------------------------------------------------------------------|
>--------------------------------------------------------------------|
>----------------------------------------------------------------3-3-|
>-5"------6"------5"------8"------5"------6"------5"h6"p5"-------1-1-|

Gtr. 1
>-----------------------------19"-17"-15"-14"-15"-17"-15"-14"-15~-|
>-12"-14"-15"-17"-15"-14"-15~-------------------------------------|
>-----------------------------------------------------------------|
>-----------------------------------------------------------------|
>-----------------------------------------------------------------|
>-----------------------------------------------------------------|

Gtr. 2
>-----------------------------------------------------------------|
>-----------------------------------------------------------------|
>-----------------------------------------------------------------|
>-----------------------------------------------------------------|
>-------------------------------------------------------------3-3-|
>-5"------6"------5"------8"-----5"-----6"-----5"h6"p5"-------1-1-|

Gtr. 1
>-----------------------------------------------------|
>-12"-14"-15"-17"-15"-14"-15~-10"-12"-14"-12"-10"-12~-|
>-----------------------------------------------------|
>-----------------------------------------------------|
>-----------------------------------------------------|
>-----------------------------------------------------|

Gtr. 2
>------------------------------------------------------|
>------------------------------------------------------|
>------------------------------------------------------|
>------------------------------------------------------|
>--------------------------------------------------3-3-|
>-5"----6"----5"----8"----5"----6"----5"h6"p5"-----1-1-|

Gtr.1
>-------------------------------------------------|
>-12"-14"-15"-14"-12"-14~-10"-12"-14"-12"-10"-12~-|
>-------------------------------------------------|
>-------------------------------------------------|
>-------------------------------------------------|
>-------------------------------------------------|

Gtr. 2
>--------------------------------------------------|
>--------------------------------------------------|
>--------------------------------------------------|
>--------------------------------------------------|
>----------------------------------------------3-3-|
>-5"----6"----5"----8"----5"----6"---5"h6"p5"--1-1-|

Gtr. 1
>-------------------------------------------------|
>-12"-14"-15"-14"-12"-14~-10"-12"-14"-12"-10"-12~-|
>-------------------------------------------------|
>-------------------------------------------------|
>-------------------------------------------------|
>-------------------------------------------------|

Gtr. 2
>--------------------------------------------------|
>--------------------------------------------------|
>--------------------------------------------------|
>--------------------------------------------------|
>----------------------------------------------3-3-|
>-5"----6"----5"----8"----5"----6"---5"h6"p5"--1-1-|

well thats it i guess unless i left a mistake somewhere, i know theres a mistake here somewhere.

Pre-Chorus: 4x
Both Guitars:
>-------------------------------------------<
>-------------------------------------------<
>-------------------------------------------<
>--------3-p-2-p-0--------------------------<
>-7-7-7-------------3-3-3-3-3-3-5-5-5-5-5-5-<
>-5-5-5-------------1-1-1-1-1-1-3-3-3-3-3-3-<
                    . . . . . . . . . . . .

Chorus: 2x
>-------------------------------------------------------------------------<
>-------------------------------------------------------------------------<
>-------------------------------------------------------------------------<
>-------------------------------------------------------------------------<
>-7-7-5"-7"-8"-5"-7"--7-7-5"-7"-8"-5"--7-7-5"-7"-8"-7"-5"-3"-5"-3"-2"-0"--<
>-5-5-----------------5-5--------------5-5--------------------------------<

Pre-Outro: unsure about this, very unsure,... with both Guitars.....
Gtr. 1                                          2x
>-----------------------------------------------<
>-7"-8"-7"-10"-7"-8"-----7"-7"-10"-7"-8"--------<
>---------------------8"-----------------8"-10"-<
>-----------------------------------------------<
>-----------------------------------------------<
>-----------------------------------------------<

Gtr. 2                                                                  2x
>-------------------------------------------------------------------------<
>-------------------------------------------------------------------------<
>-------------------------------------------------------------------------<
>-------------------------------------------------------------------------<
>-7-7-5"-7"-8"-5"-7"--7-7-5"-7"-8"-5"--7-7-5"-7"-8"-7"-5"-3"-5"-3"-2"-0"--<
>-5-5-----------------5-5--------------5-5--------------------------------<

Pre-Outro: Cont.
Gtr. 1
>-----------------------------------------------<
>-7"-8"-7"-10"-7"-8"-----7"-7"-10"-7"-8"--------<
>---------------------8"-----------------8"-10"-<
>-----------------------------------------------<
>-----------------------------------------------<
>-----------------------------------------------<
Gtr. 2
>-----------------------------------------------<
>-----------------------------------------------<
>-----------------------------------------------<
>-----------------------------------------------<
>-7-------------3----------------5--------------<
>-5-------------1----------------3--------------<


Outro: 4x                                      Last time
>-------------------------------------------I--------------<
>-------------------------------------------I--------------<
>-------------------------------------------I--------------<
>--------3-p-2-p-0--------------------------I--------------<
>-7-7-7-------------3-3-3-3-3-3-5-5-5-5-5-5-I--7~~~~~~~~~~-<
>-5-5-5-------------1-1-1-1-1-1-3-3-3-3-3-3-I--5~~~~~~~~~~-<
                    . . . . . . . . . . . .


I know its crappy but itll do for a while till i get use
to tabbing this stuff then ill come back to finish this.
Tap to rate this tab
# A B C D E F G H I J K L M N O P Q R S T U V W X Y Z