Song name
# A B C D E F G H I J K L M N O P Q R S T U V W X Y Z

Ashtaroth - I Unleash tab

ASHTAROTH: I Unleash
Tabbed By: Gordy

E------------------------------------------------------------|
B------------------------------------------------------------|
G------------------------------------------------------------|
D------------------------------------------------------------|
A------------7-6-4---------7-6-4--------7-6-4---------7-6-4--|
E-----4-4-4---------4-4-4--------5-5-5---------7-7-7---------|
Repeat 4 times

E-------------------------------------------------------------------------------|
B-------------------------------------------------------------------------------|
G-------------------------------------------------------------------------------|
D-------------------------------------------------------------------------------|
A-------------------------------------------------------------------------------|
E-4-4-4-4-4-4-/7-7-7-7-7-6-6-6-6-6-6-6/4-4-4-4-4-4-4-7/-9-9-9-9-9-9-7-7-7-7-7-7-|
Repeat Twist

E---------------------------------------------------------------------------|
B---------------------------------------------------------------------------|
G---------------------------------------------------------------------------|
D---------------------------------------------------------------------------|
A---66666---99999---88888---66666---9--11-11-11-11-11---999999--------------|
E---44444---77777---66666---44444---7---9--9---9---9--9----777777-----------|
Repeat Twist

E----------------------------------------------------------------------------|
B----------------------------------------------------------------------------|
G---1-1-1-4-3-1-1-1-1-4-3-666666-44444h3p4-1-1-1-4-3-1-1-1-1-4-3-------------|
D----------------------------------------------------------------22222h1p21~-|
A----------------------------------------------------------------------------|
E----------------------------------------------------------------------------|
Repeat Twist

E---------------------------------------------------------------------------|
B---------------------------------------------------------------------------|
G---------------------------------------------------------------------------|
D---------------------------------------------------------------------------|
A---66666---99999---88888---66666---9--11-11-11-11-11---999999--------------|
E---44444---77777---66666---44444---7---9--9---9---9--9----777777-----------|
Repeat 3 Times This time

E----------------------------------------------------------------------------|
B----------------------------------------------------------------------------|
G---1-1-1-4-3-1-1-1-1-4-3-666666-44444h3h4-1-1-1-4-3-1-1-1-1-4-3-------------|
D---------------------------------------------------------------22222h1p2h1~-|
A----------------------------------------------------------------------------|
E----------------------------------------------------------------------------|
Repeat Twist

E---------------------------------------------------------------------------|
B---------------------------------------------------------------------------|
G---------------------------------------------------------------------------|
D---------------------------------------------------------------------------|
A-----------7-6-4----------7-6-4--------7-6-4--------7-6-4------------------|
E----4-4-4---------4-4-4---------5-5-5--------7-7-7-------------------------|
Do This Twist

E-------------------------------------------------------------------------------|
B-------------------------------------------------------------------------------|
G-------------------------------------------------------------------------------|
D-------------------------------------------------------------------------------|
A-------------------------------------------------------------------------------|
E-4-4-4-4-4-4-/7-7-7-7-7-6-6-6-6-6-6-6/4-4-4-4-4-4-4-7/-9-9-9-9-9-9-7-7-7-7-7-7-|
Two More Times
Solo:
E----------------------------------------------------------------------------|
B----------------------------------------------------------------------------|
G-----------3~---------------------------------------------------------------|
D--1~2h3p2-------------------------------------------------------------------|
A----------------------------------------------------------------------------|
E ---------------------------------------------------------------------------|
I Will Get back to this Later i have to go to my next class..................ASHTAROTH Kicks-ASS
Tap to rate this tab
# A B C D E F G H I J K L M N O P Q R S T U V W X Y Z