Asia - Heat Of The Moment tab

|--------------|---------------------|
|--------------|---------------------|
|--------------|---------------6-----|
|--------------|--8--------8-9---9-6-|
|--8-6-4-------|---------------------|
|--------8-6-4-|---------------------|

|----------------------------------|----------------------------|
|----------------------------------|----------------------------|
|----------------------------------|----------------------------|
|----6-8b----------------6---------|----------------------------|
|--9--------8--9----9-------9----6-|---9----8-8---6-9---8-8---6-|
|----------------------------------|----------------------------|

|-----------------------------|----------------|
|-----------------------------|--------------6-|
|----------------6---6------6-|--6b-----6--8---|
|--6-8---------8---8----------|----------------|
|-----------------------------|----------------|
|-----------------------------|----------------|

|------------------------------|----------------------------|
|------------------------------|----------------------------|
|------------------------------|----------------------------|
|--6------------------6---6\5--|--5/8----8\5----5/6----5/6--|
|----10-8----------------------|----------------------------|
|------------------------------|----------------------------|

|-----------------------------13/9-13\8-----9\8----6-6|
|-----------------6-7---6-7-9-14----------------------|
|--5\6---5\6---8-----8--------------------------------|
|-----------------------------------------------------|
|-----------------------------------------------------|
|-----------------------------------------------------|

|--4--------6\4-------------|-4-----------------------------------------|
|-----------------7-7-----6-|---------------4---4B----4\6---7\6---7\9---|
|---------------------------|-------------------------------------------|
|---------------------------|-------------------------------------------|
|---------------------------|-------------------------------------------|
|---------------------------|-------------------------------------------|

|--------------8------|-6-----------6-----|--------------------------|
|-------------------8-|-----------------8-|-----7----7----7----------|
|--8------------------|-----8-------------|-------------------6\5\6--|
|---------------------|-------------------|--------------------------|
|---------------------|-------------------|--------------------------|
|---------------------|-------------------|--------------------------|
Tap to rate this tab
 
# A B C D E F G H I J K L M N O P Q R S T U V W X Y Z