Song name
# A B C D E F G H I J K L M N O P Q R S T U V W X Y Z

Asian Kung-fu Generation - 24 Ji tab

E flat tuning, it could be standard also, just move all notes half step up.
Tabbed by Albert the Chu-meister
This is all lead, c'mon... you know lead is way more fun to play... you only hear
lead in this song anyways.
Forewarning: For all the notes I only put one strum, that doesn't mean play it once,
listen to the song and figure out how many times to hit the note. Also, figure out the
strumming for the chords. 
I don't understand Japanese so I don't know the location of their intro and etc. Just
follow this the whole way through. ^^v

Eb|------------------------|
Bb|------------------------| 
Gb|--8---6---9---8---------| 
Db|------------------------| 
Ab|--6---4---7---6---------| 
Eb|------------------------| 

Eb|------------------------|
Bb|--11---9----------------| 
Gb|-----------10---8-------| 
Db|------------------------| 4x
Ab|------------------------| 
Eb|------------------------| 

Eb|------------(add on last repeat)--|
Bb|--12---11---7---9---(7)-----------| 
Gb|----------------------------------| 
Db|----------------------------------| 2x
Ab|----------------------------------| 
Eb|----------------------------------| 

Eb|----------------(on 4th and 8th repeat---|
Bb|-----------------replace last 3 chords)--| 
Gb|--6---8---9--8--6--8---(11)--------------| 
Db|-----------------------------------------| 8x
Ab|--4---6---7--6--4--6---(9-)--------------| 
Eb|-----------------------------------------| 

Eb|-------------------------------------|
Bb|--11---9------------(on last repeat)-| 
Gb|-----------10---8---(8---6---9---8)--| 
Db|-------------------------------------| 4x
Ab|-------------------------------------| 
Eb|-------------------------------------| 

Eb|------------------------|
Bb|------------------------| 
Gb|--8---6---9---8---------| 
Db|------------------------| 6x
Ab|--6---4---7---6---------| 
Eb|------------------------| 

Eb|------------------------|
Bb|------------------------| 
Gb|------------------------| 
Db|----9-------------------| 4x
Ab|--7-----9---6-----------| 
Eb|------7---4---2-2-------| 

Eb|------------------------|
Bb|--11--12--11---12-------| 
Gb|------------------------| 
Db|------------------------| 4x
Ab|------------------------| 
Eb|------------------------| 

Eb|--------------------------------------|
Bb|--9--7--11--9---12---11---7---9---7---| 
Gb|--------------------------------------| 
Db|--------------------------------------| 
Ab|--------------------------------------| 
Eb|--------------------------------------| 

Eb|----------------(on the 4th, 8th, 12th repeat---|
Bb|-----------------replace last 3 chords)---------| 
Gb|--6---8---9--8--6--8---(11)---------------------| 
Db|------------------------------------------------| 12x
Ab|--4---6---7--6--4--6---(9-)---------------------| 
Eb|------------------------------------------------| 

Eb|------------------------|
Bb|------------------------| 
Gb|--8--6--9--8------------| 
Db|------------------------| 4x
Ab|--6--4--7--6------------| 
Eb|------------------------| 

badboyslim888@hotmail.com
Tap to rate this tab
# A B C D E F G H I J K L M N O P Q R S T U V W X Y Z