Song name
# A B C D E F G H I J K L M N O P Q R S T U V W X Y Z

Asin - Ang Bayan Ko tab

e---------------------------------------------------------------------|
b--10-10-----1210-12-12-12/13------13-15-17-15-15---15--13-12-11-----|
g-9-------------------------------------------------------------------|
d---------------------------------------------------------------------|
a---------------------------------------------------------------------|
E---------------------------------------------------------------------|

mas mbilis n!!!!!!!!!!
e---------------------------------------------------------------------|
b--10-10-----1210-12-12-12/13------13-15-17-15-15---15--13-12-11-----|
g-9-------------------------------------------------------------------|
d---------------------------------------------------------------------|
a---------------------------------------------------------------------|
E---------------------------------------------------------------------|
kayo nang bhala sa timing

jlpmghrs_alex@yahoo.com
Tap to rate this tab
 
# A B C D E F G H I J K L M N O P Q R S T U V W X Y Z