Song name
# A B C D E F G H I J K L M N O P Q R S T U V W X Y Z

Asking Alexandria - Alerion tab

-------------------------------------------------------------------------------
			     Alerion - Asking Alexandria
-------------------------------------------------------------------------------
Tabbed by:heywhatsupdude
Email:jaredmcr5@hotmail.com

Tuning:Drop D

e|---------------------------------------------------------------------------|
B|---------------------------------------------------------------------------|
G|---------------------------------------------------------------------------|
D|-0~~~~-------0~~~~---------------------------------------------------------|
A|-0~~~~-0-0---0~~~~---------------------------------------------------------|
E|-0~~~~-0-0---0~~~~---------------------------------------------------------|
         . .
e|---------------------------------------------------------------------------|
B|---------------------------------------------------------------------------|
G|---------------------------------------------------------------------------|
D|---------------------------------------------------------------------------|
A|-0000-0000-000-00-0000-0000--0000-0000-000-00-0000-0000--------------------|
E|-0000-0000-000-00-0000-0000--0000-0000-000-00-0000-0000--------------------|
   .... .... ... .. .... ....  .... .... ... .. .... ....
e|---------------------------------------------------------------------------|
B|---------------------------------------------------------------------------|
G|---------------------------------------------------------------------------|
D|---------------------------------------------------------------------------|
A|-0000-0000-000-00-0000-0000-0-0-0--0000-0000-000-00-0000-0000-0-0-0--------|
E|-0000-0000-000-00-0000-0000-1-1-1--0000-0000-000-00-0000-0000-1-1-1--------|
   .... .... ... .. .... .... . . .  .... .... ... .. .... .... . . .
e|-----------------------------------------------------------------------------|
B|-----------------------------------------------------------------------------|
G|----7-7-10-9-12-3-5--7--7-10-9-12-3-55555555---------------------------------|
D|-0--x-x-x--x-x--x-x--x--x-x--x-x--x-xxxxxxxx---------------------------------|
A|-0--5-5-8--7-10-1-3--5--5-8--7-10-1-33333333---------------------------------|
E|-0---------------------------------------------------------------------------|

e|---------------------------------------------------------------------------|
B|---------------------------------------------------------------------------|
G|---------------------------------------------------------------------------|
D|---------------------------------------------------------------------------|
A|-0-0-0-000-000--0-0-0-000-00-00--0-0-0-000-000--0-0-0-000-00-00------------|
E|-0-0-0-000-000--0-0-0-000-00-00--0-0-0-000-000--0-0-0-000-00-00------------|
   . . . ... ...  . . . ... .. ..  . . . ... ...  . . . ... .. ..
e|---------------------------------------------------------------------------|
B|---------------------------------------------------------------------------|
G|---------------------------------------------------------------------------|
D|---------------------------------------------------------------------------|
A|-0-0-0-00-00-0--0-0-0-00-00-0----------------------------------------------|
E|-0-0-0-00-00-0--0-0-0-00-00-0----------------------------------------------|
   . . . .. .. .  . . . .. .. .
e|---------------------------------------------------------------------------|
B|---------------------------------------------------------------------------|
G|---------------------------------------------------------------------------|
D|---------------------------------------------------------------------------|
A|-0-0-0-000-000--0-0-0-000-00-00-0------------------------------------------|
E|-0-0-0-000-000--0-0-0-000-00-00-0------------------------------------------|
   . . . ... ...  . . . ... .. .. .
Tap to rate this tab
 
# A B C D E F G H I J K L M N O P Q R S T U V W X Y Z