Song name
# A B C D E F G H I J K L M N O P Q R S T U V W X Y Z

Asking Alexandria - Alerion tab

Artist: Asking Alexandria
Song: Alerion
Album: Stand Up and Scream

Tuning: Drop D
DADGBE

Both guitars play the same thing
except for the part before the breakdown
both guitars are included there

P.D. This song is extremely hard to play
Props to you if you can play this beast

0:33

e|---------------------------------|
B|---------------------------------|
G|---------------------------------|
D|---0~----------------------------|
A|---0~------------------0-0-------|
D|---0~------------------0-0-------|
                         * *

0:41

e|---------------------------------|
B|---------------------------------|
G|---------------------------------|
D|--0~-----------------------------|
A|--0~-----------------------------|
D|--0~-----------------------------|


0:48

e|------------------------------------------------------------------------------|
B|------------------------------------------------------------------------------|
G|------------------------------------------------------------------------------|
D|------------------------------------------------------------------------------|
A|--0-0-0-0--------0-0-0-0---0-0---0-0---0-0---0-0-0-0-----------0-0-0-0--------|
D|--0-0-0-0--------0-0-0-0---0-0---0-0---0-0---0-0-0-0-----------0-0-0-0--------|
    * * * *        * * * *   * *   * *   * *   * * * *           * * * *


0:55

e|------------------------------------------------------------------------------|
B|------------------------------------------------------------------------------|
G|------------------------------------------------------------------------------|
D|------------------------------------------------------------------------------|
A|--0-0-0-0--------0-0-0-0---0-0---0-0---0-0---0-0-0-0-----------0-0-0-0--------|
D|--0-0-0-0--------0-0-0-0---0-0---0-0---0-0---0-0-0-0-----------0-0-0-0--------|
    * * * *        * * * *   * *   * *   * *   * * * *           * * * *

1:03

e|-------------------------------------------------------------------------------|
B|-------------------------------------------------------------------------------|
G|-------------------------------------------------------------------------------|
D|-------------------------------------------------------------------------------|
A|--0-0-0-0~--------0-0-0-0---0-0---0-0---0-0---0-0-0-0~---------0-0-0-0~--0-0-0-|
D|--0-0-0-0~--------0-0-0-0---0-0---0-0---0-0---0-0-0-0~---------0-0-0-0~--1-1-1-|
    * * * *         * * * *   * *   * *   * *   * * * *          * * * *   * * *

1:09

e|--------------------------------------------------------------------------------|
B|--------------------------------------------------------------------------------|
G|--------------------------------------------------------------------------------|
D|--------------------------------------------------------------------------------|
A|--0-0-0-0--------0-0-0-0---0-0---0-0---0-0---0-0-0-0-----------0-0-0-0---0-0-0--|
D|--0-0-0-0--------0-0-0-0---0-0---0-0---0-0---0-0-0-0-----------0-0-0-0---1-1-1--|
    * * * *        * * * *   * *   * *   * *   * * * *           * * * *   * * *


1:17

e|---------------------------------|
B|---------------------------------|
G|---------------------------------|
D|---0-----------------------------|
A|---0-----------------------------|
D|---0-----------------------------|

Right Speaker / Guitar

1:23

e|---------------------------------------------|
B|---------------------------------------------|
G|--------------14----12----15----5~-------9~--|
D|----0----0-----x-----x-----x----x~-------x~--|
A|----0----0----12----10----13----3-~------7~--|
D|----0----0-----------------------------------|

1:34

e|-------------------------------------------------------------------|
B|-------------------------------------------------------------------|
G|--------------14----12----15----5-------9~-------9-9-9-9-9-9-9-9-9-|
D|----0----0-----x-----x-----x----x-------x~-------x-x-x-x-x-x-x-x-x-|
A|----0----0----12----10----13----3-------7~-------7-7-7-7-7-7-7-7-7-|
D|----0----0---------------------------------------------------------|


Left Speaker / Guitar

1:23

e|------------------------------------------------|
B|------------------------------------------------|
G|----7----7---10----9----12----7~---------5~-----|
D|----x----x----x----x-----x----x~---------x~-----|
A|----5----5----8----7----10----5~---------3~-----|
D|------------------------------------------------|

1:34

e|--------------------------------------------------------------------|
B|--------------------------------------------------------------------|
G|----7----7---10----9----12----7~---------5~-------5-5-5-5-5-5-5-5-5-|
D|----x----x----x----x-----x----x~---------x~-------x-x-x-x-x-x-x-x-x-|
A|----5----5----8----7----10----5~---------3~-------3-3-3-3-3-3-3-3-3-|
D|--------------------------------------------------------------------|

1:44

e|--------------------------------------------------------------------------------|
B|--------------------------------------------------------------------------------|
G|--------------------------------------------------------------------------------|
D|--------------------------------------------------------------------------------|
A|--0--0--0---------0-0-0----0-0-0------0--0--0---------0-0-0----------0-0---0-0--|
D|--0--0--0---------0-0-0----0-0-0------0--0--0---------0-0-0----------0-0---0-0--|
    *  *  *         * * *    * * *      *  *  *         * * *          * *   * *

1:53

e|--------------------------------------------------------------------------------|
B|--------------------------------------------------------------------------------|
G|--------------------------------------------------------------------------------|
D|--------------------------------------------------------------------------------|
A|--0--0--0---------0-0-0----0-0-0------0--0--0---------0-0-0----------0-0---0-0--|
D|--0--0--0---------0-0-0----0-0-0------0--0--0---------0-0-0----------0-0---0-0--|
    *  *  *         * * *    * * *      *  *  *         * * *          * *   * *

1:59

e|--------------------------------------------------------------------------------|
B|--------------------------------------------------------------------------------|
G|--------------------------------------------------------------------------------|
D|--------------------------------------------------------------------------------|
A|--0--0--0~-------0-0---0-0--0-------0--0--0~---------------0-0---0-0--0---------|
D|--0--0--0~-------0-0---0-0--0-------0--0--0~---------------0-0---0-0--0---------|
    *  *  *        * *   * *  *       *  *  *                * *   * *  *

2:06

e|--------------------------------------------------------------------------------|
B|--------------------------------------------------------------------------------|
G|--------------------------------------------------------------------------------|
D|--------------------------------------------------------------------------------|
A|--0--0--0---------0-0-0----0-0-0------0--0--0---------0-0-0--------0-0---0-0--0-|
D|--0--0--0---------0-0-0----0-0-0------0--0--0---------0-0-0--------0-0---0-0--0-|
    *  *  *         * * *    * * *      *  *  *         * * *        * *   * *  *


Tap to rate this tab
# A B C D E F G H I J K L M N O P Q R S T U V W X Y Z