Song name
# A B C D E F G H I J K L M N O P Q R S T U V W X Y Z

Asking Alexandria - A Prophecy tab

This is one of Asking Alexandria's best songs I think I can't believe no one has tabbed 
out yet. It's an awesome song and it's pretty fun to play too.

A Prophecy
Asking Alexandria

Tuning: Drop D

Intro:
e|-----------------------------------------------------|
B|-----------------------------------------------------|
G|-------7-9-9-9-9-7-7-10\-------1012-12-12-12-1010----|
D|--0~---x-x-x-x-x-x-x-x----0~---x-x--x--x--x--x-x-----|
A|--0~---5/7-7-7-7\5-5/8\---0~---8/10-10-10-10\8-8-----|
E|--0~----------------------0~-------------------------|

Verse: strumming
e|---------------------------------|
B|---------------------------------|
G|--10---9--10---14---12--15-------|
D|--x----x--x----x----x---x--------|
A|--8----7--8----12---10--13-------|
E|---------------------------------|

e|---------------------------------|
B|---------------------------------|
G|--10---9--10---14---5--9---------|
D|--x----x--x----x----x--x---------|
A|--8----7--8----12---3--7---------|
E|---------------------------------|

e|---------------------------------------------------|
B|---------------------------------------------------|
G|---------------------------------------------------|
D|---------------------------------------------------|
A|-0000-000-0-000-000000-000-000-0--5p0-7p0-10-8-7---|
E|-0000-000-0-000-000000-000-000-0-------------------|
   .... ... . ... ...... ... ... .

e|---------------------------------------|
B|---------------------------------------|
G|---------------------------------------|
D|---------------------------------------|
A|--0-000-000-0-000-000000-000-000-000---|
E|--0-000-000-0-000-000000-000-000-000---|
      ... ... . ... ...... ... ... ...

e|------------------------------------------------------|
B|------------------------------------------------------|
G|------------------------------------------------------|
D|------------------------------------------------------|
A|--0-000-000-0-000-000000-000-000-0--8p0-10p0-13-10-8--|
E|--0-000-000-0-000-000000-000-000-0--------------------|
      ... ... . ... ...... ... ... .

e|-------------------------------------------------------|
B|-------------------------------------------------------|
G|-------------------------------------------------------|
D|-------------------------------------------------------|
A|--0-000-000-0-000-000000-000-000-0--5p0-7p0-10-8-7--0--|
E|--0-000-000-0-000-000000-000-000-0------------------0--|
      ... ... . ... ...... ... ... .                  .
                                        (not sure about these notes)
e|-------------------------------------------------------------------------|
B|-------------------------------------------------------------------------|
G|-----------------(fuck!)--------------------------------------------5*b--|
D|---------------------------------------8p0-10p0-8p0-7p0-8p0-7p0-5p0------|
A|--0-0-0-0-0-0-00---------------------------------------------------------|
E|--1-1-1-1-1-1-00---------00---00-00-00-----------------------------------|
    . . . . . . ..         ..   .. .. ..

(I have no idea about the pinch harmonic but that's the closest I found)
e|-------------------------------------------------------------------------|
B|-------------------------------------------------------------------------|
G|-------------------4*b----------------------------------------------5*b--|
D|---------------------------------------8p0-10p0-8p0-7p0-8p0-7p0-5p0------|
A|--00~---00~00~00~-------00---00-00-00------------------------------------|
E|--00~---00~00~00~-------00---00-00-00------------------------------------|
    ..    .. .. ..        ..   .. .. ..

e|----------------------------------|
B|----------------------------------|
G|----------------------------------|
D|----------------------------------|
A|--00~---00~00~00~---0-0-0-0-0-0---|
E|--00~---00~00~00~---1-1-1-1-1-1---|
    ..    .. .. ..    . . . . . .

Chorus: strumming up and down
e|------------------------------------------------------|    |------|
B|------------------------------------------------------|    |------|
G|------------------------------------------------------|    |------|
D|--0---------------10-------8----------3---------------|    |--0~--|
A|--0---------------10-------8----------3--------3------| x2 |--0~--|
E|--0---------------10-------8----------3--------2------|    |--0~--|
  24 strums       8 strums  16 strums  8 strums 8 strums

The background guitar before this and during the chorus is a bitch to work out. I worked 
most but a few notes were just weird so I didn't put it in.
e|---------------------------------------------|
B|---------------------------------------------|
G|---------------------------------------------|
D|---------------------------------------------| x2
A|--0-0-0-0-0-0--00-00--0-0-0-0-0-0--000-0-00--|
E|--0-0-0-0-0-0--00-00--0-0-0-0-0-0--000-0-00--|
    . . . . . .  .. ..  . . . . . .  ... . ..

e|---------------------------------------------|
B|---------------------------------------------|
G|---------------------------------------------|
D|---------------------------------------------|
A|--0~0~0~0~0~0~-00~00~-0~0~0~0~0~0~-000~0~00~-|
E|--0~0~0~0~0~0~-00~00~-0~0~0~0~0~0~-000~0~00~-|
    . . . . . .  .. ..  . . . . . .  ... . ..

e|------------------------------------------------|
B|------------------------------------------------|
G|------------------------------------------------|
D|------------------------------------------------|
A|--0---0-0-0-0--00-00--0-0-0-0-0-0--000-0-00--0--|
E|--0---0-0-0-0--00-00--0-0-0-0-0-0--000-0-00--0--|
    .   . . . .  .. ..  . . . . . .  ... . ..  .

e|-----------------------------------|
B|-----------------------------------|
G|-----------------------------------|
D|-----------------------------------| x2
A|--00~-00~00~0~00~-00~-000~00~------|
E|--11~-11~11~1~11~-11~-111~11~------|
    ..  .. .. . ..  ..  ... ..

e|-----------------------------------|
B|-----------------------------------|
G|-----------------------------------|
D|-----------------------------------|
A|--00--00-00-0-00--00--000-00-------|
E|--00--00-00-0-00--00--000-00-------|
    ..  .. .. . ..  ..  ... ..

e|------------------------------------|
B|------------------------------------|
G|------------------------------------|
D|------------------------------------|
A|--00~-00~00~0~00~-00~-000~00~--00---|
E|--00~-00~00~0~00~-00~-000~00~--00---|
    ..  .. .. . ..  ..  ... ..   ..
Tap to rate this tab
# A B C D E F G H I J K L M N O P Q R S T U V W X Y Z