Song name
# A B C D E F G H I J K L M N O P Q R S T U V W X Y Z

Asking Alexandria - A Candlelit Dinner With Inamorta tab

A Candlelit Dinner With Inamorta By Asking Alexandria

no on ever tabbed it so i gave it a shot. i hope you like. its the rhythmn guitar
part. some parts are wrong but i'll get to them soon i promise. i'll tab the lead later 
i have time.

love,

ed undead

e|-------------------------------------------------------|
B|-------------------------------------------------------|
G|-------------------------------------------------------|
D|------------------------------x8-----------------------|
A|-0000-0000-00000000-00-00-00---------------------------|
D|-0000-0000-00000000-00-00-00---------------------------|
   **** **** ******** ** ** **

e|-------------------------------------------------------|
B|--------------------------6-9--------5-8-5-------------|
G|------------------------7------7/6-6-------------------|
D|-----------0-0~----------------------------------------|
A|0000000000-0-0~-0000000--------------------------------|
D|0000000000-0-0~-0000000--------------------------------|
  **********      *******
                                                               x2
e|-------------------------------------------------------|
B|-------------------------------------------------------|
G|------------------------10----9----12----10------------|
D|-----------0-0~----------x-x3-x-x3--x-x3--x-x3---0~----|
A|0000000000-0-0~-0000000--8----7----10-----8------0~----|
D|0000000000-0-0~-0000000--------------------------0~----|
  **********      *******

e|-------------------------------------------------------|
B|-------------------------------------------------------|
G|-------------------------------------------------------|
D|----------------------------------88-7-5-0---x2--------|
A|00-00-00-00--00-00000-00-00-00-00-88-7-5-0-------------|
D|00-00-00-00--00-00000-00-00-00-00-88-7-5-0-------------|
  ** ** ** **  ** ***** ** ** ** **

e|-------------------------------------------------------|
B|-------------------------------------------------------|
G|-------------------------------------------------------|
D|-------------------------------------------------------|
A|00-00-00-00--00-00000-00-00-00-00----------------------|
D|11-11-11-11--11-11111-11-11-11-11----------------------|
  ** ** ** **  ** ***** ** ** ** **

e|-------------------------------------------------------|
B|-------------------------------------------------------|
G|-------------------------------------------------------|
D|-------------------------------------------------------|
A|000-000--000-000--000--000-000----000------------------|
D|000-000--000-000--000--000-000----000------------------|
  *** ***  *** ***  ***  *** ***    ***

e|-------------------------------------------------------|
B|-------------------------------------------------------|
G|-------------------------------------------------------|
D|-8-----10-----12------10--------x2---------------------|
A|-8-x16-10-x16-12-x16--10-x16---------------------------|
D|-8-----10-----12------10-------------------------------|

(techno part <3)

breakdown i didnt have time to tab the whole thing but u can figure out the rhythmn to 
breakdown its just

e|-------------------------------------------------------|
B|-------------------------------------------------------|
G|-------------------------------------------------------|
D|-------------------------------------------------------|
A|0--and--0----------------------------------------------|
D|0-------1----------------------------------------------|
  *       *

e|-------------------------------------------------------|
B|-------------------------------------------------------|
G|-------------------------------------------------------|
D|8-----10---- 12-----10--------x2-0~--------------------|
A|8-x16-10-x16-12-x16-10-x16-------0~--------------------|
D|8-----10-----12-----10-----------0~--------------------|


END


lyrics,

This isn't over baby don't believe a word they said
But then
She takes a moment to ponder
To wonder what could've been given another chance
To find the light in the darkness and a way out of this
If only she could see what I could see
She takes a moment to stumble to her feet
If only I was there to hold her hand
If only she saw what I saw she'd get out of this one
She'd get out of here
What burns the most is that you lied right to my face
And still I take your hand to set you free
With eyes closed
Her heart breaks
And after it all
She brought this on herself
For me, for you, the fallen, save her
For me, for us, for good, save her
She falls before me
With eyes closed
Her heart breaks
And after it all
She brought this on herself
Tap to rate this tab
 
# A B C D E F G H I J K L M N O P Q R S T U V W X Y Z