Song name
# A B C D E F G H I J K L M N O P Q R S T U V W X Y Z

Asking Alexandria - A Candlelit Dinner With Inamorta tab

This is the real way to play it. I still have to figure out some parts, but I'll submit 
later. I was dying for this tab, lol. Played in Drop D.

Intro
e--------------------------------|
B--------------------------------|
G--------------------------------|
D--------------------------------|
A-000-000--000000-000--0-00-0-00-|
D-000-000--000000-000--0-00-0-00-|
pm... ...  ...... ...  . .. . ..

Verse 1
e----------------------------------|
B----------------------------------|
G----------------------------------|
D-0-2-3-0-10-0-0-8-0-0-7-0-2-3-2-3-|
A----------------------------------|
D----------------------------------|

e----------------------------------|
B----------------------------------|
G------------------------------5---|
D-0-2-3-0-10-0-0-8-0-0-7-0-2-3-----|
A----------------------------------|
D----------------------------------|

e----------------------------------|
B----------------------------------|
G----------------------------------|
D-0-2-3-0-10-0-0-8-0-0-7-0-2-3-2-3-|
A----------------------------------|
D----------------------------------|

e----------------------------------|
B----------------------------------|
G------------------------------2---|
D-0-2-3-0-10-0-0-8-0-0-7-0-2-3-----|
A----------------------------------|
D----------------------------------|

Verse 2 - x2
e---------------------------------8-----------|
B-----------------------------5-6---6-5---5-6-|
G---------------------------------------7-----|
D-----------------0-0-------------------------|
A-000000000000000-0-0-0000000-----------------|
D-000000000000000-0-0-0000000-----------------|
pm...............     .......

e------------------------------------------|
B------------------------------------------|
G------------------------------------------|
D-----------------0-8-88-7-77-10-1010-8-88-|
A-000000000000000-0-8-88-7-77-10-1010-8-88-|
D-000000000000000-0-8-88-7-77-10-1010-8-88-|
pm...............

End of 2nd time
e-------------|
B-------------|
G-------------|
D-0-let ring--
A-0-----------|
D-0-----------|

Verse 3 - x2
e---------------------------------------------------|
B---------------------------------------------------|
G---------------------------------------------------|
D---------------------------------------------------|
A-00--00---00--00---00---00000000---00--00---00--00-|
D-00--00---00--00---00---00000000---00--00---00--00-|
pm..  ..   ..  ..   ..   ........   ..  ..   ..  ..

e--------------|
B--------------|
G--------------|
D--------------|
A-8/7----------|
D-8/7-0-5p0-3~-|
pm    .

Verse 4
e---------------------------------------------------|
B---------------------------------------------------|
G----------------let mutes ring out-----------------|
D---------------------------------------------------|
A-00--00---00--00---00---00000000---00--00---00--00-|
D-00--00---00--00---00---00000000---00--00---00--00-|
pm..  ..   ..  ..   ..   ........   ..  ..   ..  ..

e---------------------------------------|
B---------------------------------------|
G---------------------------------------|
D---------------------------------------|
A-000-000--000-000--000---------000-000-|
D-000-000--000-000--000---------000-000-|
pm... ...  ... ...  ...         ... ...

The next parts, i still have to figure out. I'll get them up.
Tap to rate this tab
# A B C D E F G H I J K L M N O P Q R S T U V W X Y Z