Song name
# A B C D E F G H I J K L M N O P Q R S T U V W X Y Z

Asking Alexandria - Final Episode Lets Change The Channel tab

----------------------------------------------------------------------------
                               Final Episode
----------------------------------------------------------------------------

|--------------------8*------------------|
|--------------------9*------------------|
|--------------------7*------------------| Pick Slide
|-0--------------------------------------|
|-0--------------------------------------|
|-0--------------------------------------|

|--------------------------------------------------------------|
|--------------------------------------------------------------|
|--------------------------------------------------------------|
|-00000000000-0----------------0000000000-0------3--2--5-3-2/3~|\
|-00000000000-0----------------0000000000-0--------------------| \
|-00000000000-0----------------0000000000-0-------00-00-0------|  \ 
  ........... .                .......... .       .. .. .          \
                                                                    X2
|--------------------------------------------------------------|   /
|--------------------------------------------------------------|  /
|--------------------------------------------------------------| /
|-88888888888-8----7--5--3-5~3~7777777777-7------5--3--2-3-3/2~|/
|-88888888888-8----------------7777777777-7--------------------|
|-88888888888-8-----00-00-0----7777777777-7-------00-00-0------|
  ........... .     .. .. .    .......... .       .. .. .     

|-----------------------------------------------------|
|-----------------------------------------------------|
|-3--2--5-3-2/3-3--2--5-3-2/37--5--3-5~3~--3--2-3-3-2~|  X4
|-----------------------------------------------------|
|--00-00-0-----0-00-00-0------00-00-0----00-00-0------|
   .. .. .     . .. .. .      .. .. .    .. .. .  

|-------------------------14^----------------------------------| 
|-------------------------14^----------------------------------|
|-------------------------14^----------------------------------|
|-00000000000-0-------0--------0000000000-0------3--2--5-3-2/3~|
|-00000000000-0-------0--------0000000000-0--------------------| 
|-00000000000-0-------0--------0000000000-0-------00-00-0------|
  ........... .       .        .......... .       .. .. .

|--------------------------------------------------------------|   
|--------------------------------------------------------------|  
|--------------------------------------------------------------| 
|-88888888888-8----7--5--3-5~3~7777777777-7------5--3--2-3-3/2~|
|-88888888888-8----------------7777777777-7--------------------|
|-88888888888-8-----00-00-0----7777777777-7-------00-00-0------|
  ........... .     .. .. .    .......... .       .. .. .

|---------------------------------------------|
|---------------------------------------------|
|---------------------------------------------|
|-0~~0000~~0000~~8~~8888~~8888~~5~~5555~~5555~|
|-0~~0000~~0000~~8~~8888~~8888~~5~~5555~~5555~|
|-0~~0000~~0000~~8~~8888~~8888~~5~~5555~~5555~|

|----------------------------------------|
|----------------------------------------|
|----------------------------------------|  0's are triplets
|-000-2-2/3~000-3-3/5~000-5-5/7~57573532-|
|-000-------000-------000----------------|
|-000-------000-------000----------------|
  ...       ...       ...
         
|-------------------------------|
|-------------------------------|
|-------------------------------|  0's are triplets
|-000-2-2/3~000-3-3/5~000---000-|
|-000-------000-------000---000-|
|-000-------000-------000---000-|
  ...       ...       ...   ...
     
|-----------------------------------------|
|-----------------------------------------|
|-----------------------------------------|  X4
|-000-000-000-000-0000-0---000-0--0-0-0-0-|
|-000-000-000-000-0000-0---000-0--0-0-0-0-|
|-000-000-000-000-0000-0---000-0--0-0-0-0-|
  ... ... ... ... .... .   ... .  . . . . 

|------------------------|
|------------------------|
|------------------------|
|-00-00-00-00--------000-|
|-00-00-00-00--------000-|
|-00-00-00-00--------000-|
  .. .. .. ..        ...
|------------------------|
|------------------------|
|------------------------|
|-00-00-00-00-----0-0000-|
|-00-00-00-00-----0-0000-|
|-00-00-00-00-----0-0000-|
  .. .. .. ..     . .... 
|------------------------|
|------------------------|
|------------------------|
|-00~00~00~00~~~~~~~0000~|
|-00~00~00~00~~~~~~~0000~|
|-00~00~00~00~~~~~~~0000~|
  .. .. .. ..       ....
|------------------------|
|------------------------|
|------------------------|
|-00~00~00~00~~~~~~~~000-|
|-00~00~00~00~~~~~~~~000-|
|-00~00~00~00~~~~~~~~000-|
  .. .. .. ..        ...
|---------------------------------------------|
|---------------------------------------------|
|---------------------------------------------|
|-0~~0000~~0000~~8~~8888~~8888~~5~~5555~~5555~|
|-0~~0000~~0000~~8~~8888~~8888~~5~~5555~~5555~|
|-0~~0000~~0000~~8~~8888~~8888~~5~~5555~~5555~|

|-9999--9999-------------|
|-7777--7777-------10*---|
|------------------------|
|-------------00000------|
|-------------00000------|
|-------------00000------|

|--------------------------|
|--------------------------|
|----------------------67--|
|-00000-00000-00000-578--5-|
|-00000-00000-00000--------|
|-00000-00000-00000--------|
  ..... ..... .....

|----------------------------Techno-Riff-----------------------------------|
        (If you are interested the chords are D-C-F for this part).

|----------------------------|
|----------------------------|
|----------------------------|  X2
|-000-000-0--0-0------0--0-0-|
|-000-000-0--0-0------0--0-0-|
|-000-000-0--0-0------0--0-0-|
  ... ... 
 triplets

|----------------------------|
|----------------------------|
|----------------------------|  X2
|-000~000~0~~~~~~~~~~~0~~0~0-|
|-000~000~0~~~~~~~~~~~0~~0~0-|
|-000~000~0~~~~~~~~~~~0~~0~0-|
  ... ... .           .  . .
  triplets

|----------------------------|
|----------------------------|
|----------------------------|  X2
|-000-000-0--0-0------0--0-0-|
|-000-000-0--0-0------0--0-0-|
|-000-000-0--0-0------0--0-0-|
  ... ... 
  triplets

|----------------------------|
|----------------------------|
|----------------------------|
|-000~~~~~~~~~~~~~~~~~~~~~~~~|
|-000~~~~~~~~~~~~~~~~~~~~~~~~|
|-000~~~~~~~~~~~~~~~~~~~~~~~~|
  ...
  triplets

|----------------------------|
|----------------------------|
|----------------------------|
|-000~~~~~~~~~~~~~~~~~~~~~~~~|
|-000~~~~~~~~~~~~~~~~~~~~~~~~|
|-000~~~~~~~~~~~~~~~~~~~~~~~~|
  ...
  triplets

|----------------------------|
|----------------------------|
|----------------------------|
|-0--0-0---------------------|
|-0--0-0---------------------|
|-0--0-0---------------------|

Let me know if you have any suggestions to improve this tab. Enjoy!
Tap to rate this tab
# A B C D E F G H I J K L M N O P Q R S T U V W X Y Z