Asking Alexandria - Nobody Dont Dance No More tab

Tuning: Drop D

Intro

E--------------------------------------------------------------------------|
B--------------------------------------------------------------------------|
G-----------------8----------------8-8-8-----------------8-8-8------xx-xx--|
D-----------------12---------------121212----------------121212-----xx-xx--|
A-00---000000---0----00~-000000~-0------00---0000000---0------------xx-xx--|
D-00---000000---0----00~-000000~-0------00---0000000---0-------------------|
  ..   ......   .    ..  ......  .      ..   .......   .

 
E------------------------------------------------------------------------|
B------------------------------------------------------------------------|
G------------------------------------------------------------------------| x4
D----7p0-5p0-7p0----7p0-5p0-7p0----7p0-5p0-7p0-8p0-7p0-5h7p5-3p0---------|
A-00-------------00-------------00---------------------------------------|
D-00-------------00-------------00---------------------------------------|
  ..             ..             ..

E----------------------------------------------------------------|
B----------------------------------------------------------------|
G-------------8-8-8-8---------------8--8--8--8-------------------|
D-------------12121212-------------12-12-12-12----0~-------------|
A-00~-000000~---------00~-000000~-----------------0~-------------|
D-00~-000000~---------00~-000000~-----------------0~-------------|
  ..  ......         ..  ......

 Guitar 1 x2
E---------------------------------------------------------------------------|
B---------------------------------------------------------------------------|
G--7------9------10-----12--------7------10-----9------5--------------------|
D--x--x8--x--x8--x--x8--x--x8-----x--x8--x--x8--x--x8--x--x8----------------|
A--5------7------8------10--------5------8------7------3--------------------|
D---------------------------------------------------------------------------|




guitar 2 x2
E---------------------------------------------------------------------------|
B---------------------------------------------------------------------------|
G--10-----12-----14-----15----------10-----14-----12-----9------------------|
D--x--x8--x--x8--x--x8--x--x8-------x--x8--x--x8--x--x8--x--x8--------------|
A--8------10-----12-----13----------8------12-----10-----7------------------|
D---------------------------------------------------------------------------|

Guitar 1 x4
E---------------------------------------------------------------------------|
B---------------------------------------------------------------------------|
G---------------------------------------------------------------------------|
D---------------------------------------------------------------------------|
A---8--7-10-8--7-7h8p7-5-8--------------------------------------------------|
D----00-0--0--0-------------------------------------------------------------|
     .. .  .  .

Guitar 2
E---------------------------------------------------------------------------|
B---------------------------------------------------------------------------|
G--10----9-10---------------------------------------------------------------|
D--x-----x-x-----7--5-8-7--5-5h7p5-3-7----7--5-6-7--5-5h7p5-3-7-------------|
A--8-----7-8----------------------------------------------------------------|
D-----------------00-0-0--0----------------00-0-0--0------------------------|
                  .. . .  .                .. . .  .

Chorus x2

Breakdown
E------------------------------------------------------------------------|
B------------------------------------------------------------------------|
G-------------------------------------------------7*---------------------|                  
D--------------9p0-5p0-8p0-7p0-------------9p0-5p0-----------------------|
A-00--0000000-------------------00--0000000------------------------------|
D-00--0000000-------------------00--0000000------------------------------|
  ..  .......                      ..  .......

Techno Breakdown
Guitar 1 x3
E-----------------------------------------|
B-----------------------------------------|
G---------14-14--14-----------------------|
D-0~------x--x---x------------------------|
A-0~------12-12--12-----------------------|
D-0~--------------------------------------|

Guitar 2 x2(Come in after Guitar 1 goes once)
E-----------------------------------------|
B-----------------------------------------|
G---10-10-9-9--10-10--x3--14-14--14-------|
D---x--x--x-x--x--x-------x--x---x--------|
A---8--8--7-7--8--8-------12-12--12-------|
D-----------------------------------------|

E----------------------|
B----------------------|
G----------------------|
D-0~-------------------|
A-0~-------------------|
D-0~-------------------|

Heavy Breakdown
E---------------------------------------------------------------|
B-----------------------------4h5-------------------------------|
G----------------------4h5-6h7----------------------------------|
D-1-----1-----1-----5h7------------1-----1-----1----------------|
A-1-00--1-00--1-00-----------------1-00--1-00--1-00-------------|
D-1-00--1-00--1-00-----------------1-00--1-00--1-00-------------|
    ..    ..    ..

E----------------------------------------------------------|
B----------------------------4h5---------------------------|
G---------------------4h5-6h7------------------------------|
D------------------5h7-------------------------------------|
A-000---000---000-------------------000--000--000----------|
D-000---000---000-------------------000--000--000----------|
  ...   ...   ...                  ...  ...  ...

Sweep part 
E--------------------------15-----------------|
B-----------------15-17-18----18-17-15--------|
G--------14-15-17----------------------15-----|
D--15-17--------------------------------------|
A---------------------------------------------|
D---------------------------------------------|

E-----------------------------------------|
B--------------------------*5(dive bomb)--|
G-----------------------------------------|
D-0~--0~-------0~-------------------------|
A-0~--0~---875-0~-0-000000----------------|
D-0~--0~---875-0~-0-000000----------------|
           ...      ......


E----------------------------------------------------------------|
B----------------------------------------------------------------|
G----------------------------------------------------------------|
D-0--------------8-7-----------0--------------8-7-5h7-0----------|x2
A-0----------------------------0---------------------------------|
D-0--0-000-000-0-----0-000-000-0--0-000-000-0----0---------------|
     . ... ... .     . ... ...    . ... ... .    .

x2
E----------------------------------------------------------------|
B----------------------------------------------------------------|
G------------------------------------------------------9---------|
D-0--------------8-7-----------0--------------8-7-5h7--------0~--|
A-0----------------------------0-----------------------------0~--|
D-0--0-000-000-0-----0-000-000-0--0-000-000-0----0-----------0~--|                      
     . ... ... .     . ... ...    . ... ... .    . 

Breakdown x2 
E----------------------------------------------|
B----------------------------------------------|
G----------------------------------------------|
D---------------------0------------------------|
A-000-000-0-0-000-000-0-000-000-0-0-000-000-0--|
D-000-000-0-0-000-000-0-000-000-0-0-000-000-0--|
  ... ... . . ... ...   ... ... . . ... ... .

Repeat it twice then somewhere in there is a dive bomb
E-----------------|
B-----------------|
G-----------------| i think its eather on third or just open
D-----------------| help?
A-----------------|
D---3(divebomb)---|

Continue breakdown until the end of the song(ends on open note)
Tap to rate this tab
 
# A B C D E F G H I J K L M N O P Q R S T U V W X Y Z