Song name
# A B C D E F G H I J K L M N O P Q R S T U V W X Y Z

Asking Alexandria - When Everydays The Weekend tab

here's my cover of this song just in case you needa know how
it sounds like :)

http://www.youtube.com/watch?v=5a0Q7h1Uul8





E|----------------------------------|
B|----------------------------------|
G|----------------------------------|
D|-------------8-7------------------|
A|-000--8p7---------8p7-10p8-8h7----|
D|-000------10-----0----------------|
   ...             .

E|----------------------------------|
B|----------------------------------|
G|----------------------------------|
D|-------------8-7------------------|
A|-000--8p7---------8p7-10p8-7*-----|
D|-000------10-----0----------------|
   ...             .

E|----------------------------------|
B|----------------------------------|
G|----------------------------------|
D|-------------8-7------------------|
A|-000--8p7---------8p7-10p8-8h7----|
D|-000------10-----0----------------|
   ...             .

E|------------------|
B|------------------|
G|------------------|
D|-------------8-7--|
A|-000--8p7---------|
D|-000------10------|
   ...

0:12   "Another sunset..."
E|-----------------------------|
B|-----------------------------|
G|-----------------------------| 
D|-------------8-7-------------|
A|-000--8p7---------8p7-10p7---|
D|-000------10-----0-----------|
   ...             .

E|------------------------------|
B|------------------------------|
G|------------------------------| 
D|-------------8-7------10------|
A|-000--8p7---------8p7----8----|
D|-000------10-----0------------|
   ...             .

E|-----------------------------|
B|-----------------------------|
G|-----------------------------| 
D|-------------8-7-------------|
A|-000--8p7---------8p7-10p7---|
D|-000------10-----0-----------|
   ...             .

E|----------------------------------|
B|----------------------------------|
G|----------------------------------|
D|-------------8-7------------------|
A|-000--8p7---------8p7-10p8-8h7----|
D|-000------10-----0----------------|
   ...             .

E|-----------------------------|
B|-----------------------------|
G|-----------------------------| x3
D|-------------8-7-------------|
A|-000--8p7---------8p7-10p7---|
D|-000------10-----0-----------|
   ...             .

E|----------------------------------|
B|----------------------------------|
G|----------------------------------|
D|-------------8-7------------------|
A|-000--8p7---------8p7-10p8-8h7----|
D|-000------10-----0----------------|
   ...             .

 Guitar 2
E|-----------------|
B|-----------------|
G|-----------------|
D|--0~~~-----------|
A|--0~~~-----------|
D|--0~~~-----------|


0:32
Guitar 1
E|---------------------------------------------------------|
B|---------------------------------------------------------|
G|---------------------------------------------------------|
D|---------------------------------------------------------|
A|--000-000--00000--00000--00000-000-000--00000--000-------|
D|--000-000--00000--00000--00000-000-000--00000--000-------|
    ... ...  .....  .....  ..... ... ...  .....  ...


0:37 "...ROLL!"
E|----------------------------------------------------------------|
B|----------------------------------------------------------------|
G|----------------------------------------------------------------|
D|----------------------------------------------------------------|
A|--000-000--00000--00000--00000-000-000--00000--00000--00000-----|
D|--000-000--00000--00000--00000-000-000--00000--00000--00000-----|
    ... ...  .....  .....  ..... ... ...  .....  .....  .....

0:42 "It's Amazing..."
E|----------------------------------------------------------------|
B|----------------------------------------------------------------|
G|----------------------------------------------------------------|
D|----------------------------------------------------------------|
A|--000-000--00000--00000--00000-000-000--00000--00000--0-0-0-----|
D|--111-111--11111--11111--11111-111-111--11111--11111--1-1-1-----|
    ... ...  .....  .....  ..... ... ...  .....  .....  . . .

0:47
E|-----------------------------------------|
B|-----------------------------------------|
G|-----------------------------------------|
D|-----------------------------------------|
A|-0-0--00--00--000-0-0--00--00--000-------|
D|-0-0--00--00--000-0-0--00--00--000-------|
   . .  ..  ..  ... . .  ..  ..  ...

E|-----------------------------------------|
B|-----------------------------------------|
G|-----------------------------------------|
D|-----------------------------------------|
A|-0-0~--00~--00~--000-0-0~--00~--00-------|
D|-0-0~--00~--00~--000-0-0~--00~--00-------|
   . .   ..   ..   ... . .   ..   ..

 Guitar 1 - 0:58 "Tonight's our night, like every night before..."
E|----------------------------|
B|----------------------------|
G|--10------12-----9----------| x3
D|--X-(x14)-X-(x7)-X-(x7)-----|
A|--8-------10-----7----------|
D|----------------------------|

1:13 "Until we fall..."
E|---------------------------|
B|---------------------------|
G|--10-------9-------7-------|
D|--X-(x14)--X-(x7)--X-(x7)--|
A|--8--------7-------5-------|
D|---------------------------|

 Guitar 2
E|-------------------------------------|
B|-------------------------------------|
G|--10------14-----12------10----------| x3
D|--X-(x14)-X-(x7)-X-(x7)--X--(X14)----|
A|--8-------12-----10------8-----------|
D|-------------------------------------|


 Added Guitar
e|---------------------------|
B|---------------------------|
G|---------------------------| x3
D|--0-------8------7---------|
A|--0-(X14)-8-(X7)-7(X7)-----|
D|--0-------8------7---------|


1:19
E|-------------------------------------|
B|-------------------------------------|
G|-----------------------------10--9---|
D|--0~-------------------------X---X---|
A|--0~-------------------------8---7---|
D|--0~---------------------------------|


1:25       "We'll drink you under the fucking table"                     
E|----------------------------------------|
B|----------------------------------------|
G|---------------------------10----9------|
D|--0~-----------------------X-----X------|
A|--0~-----------------------8-----7------|
D|--0~-------------------------0-0--------|
                               . .

  "Rack 'em up!"
E|-----------------------|
B|-----------------------|
G|-----------------------|
D|-----------------------| x3
A|--0-0--0000---000000---|
D|--0-0--0000---000000---|
    . .  ....   ......

  "Put 'em down!"
E|-----------------|
B|-----------------|
G|-----------------|
D|-----------------|
A|--0-0--0000------|
D|--0-0--0000------|
    . .  ....

1:48
E|---------------------------|
B|---------------------------|
G|---------------------------|
D|---------------------------| x2
A|--0~-0~--0000~---000000~---|
D|--0~-0~--0000~---000000~---|
    .  .   ....    ......

E|--------|
B|--------|
G|--------|
D|--------|
A|-00-0~--|
D|-00-0~--|
   .. 


Then the Interlude/Dance Party part

Guitar doesn't resume til 2:43


2:43
E|-----------------------------------|
B|-----------------------------------|
G|-----------------------------------|
D|-----------------------------------|
A|--000000-0-00-00--0000000-000-000--|
D|--000000-0-00-00--0000000-000-000--|
    ...... . .. ..  ....... ... ...                               
                                                            

E|----------------------------------|
B|----------------------------------|
G|--------------------------10--9---|
D|--------------------------X---X---|
A|-000-000--00-00--000-000--8---7---|
D|-000-000--00-00--000-000----------|
   ... ...  .. ..  ... ...


E|-----------------------------------|
B|-----------------------------------|
G|-----------------------------------|
D|-----------------------------------|
A|--000000-0-00-00--0000000-000-000--|
D|--000000-0-00-00--0000000-000-000--|
    ...... . .. ..  ....... ... ...


E|----------------------------------|
B|----------------------------------|
G|--------------------------10--9---|
D|--------------------------X---X---|
A|-000-000--00-00--000-000--8---7---|
D|-000-000--00-00--000-000----------|
   ... ...  .. ..  ... ...


E|-----------------------------------|
B|-----------------------------------|
G|-----------------------------------|
D|-----------------------------------|
A|--000000-0-00-00--0000000-000-000--|
D|--000000-0-00-00--0000000-000-000--|
    ...... . .. ..  ....... ... ...


E|----------------------------------|
B|----------------------------------|
G|--------------------------10--9---|
D|--------------------------X---X---|
A|-000-000--00-00--000-000--8---7---|
D|-000-000--00-00--000-000----------|
   ... ...  .. ..  ... ...


E|-----------------------------------|
B|-----------------------------------|
G|-----------------------------------|
D|-----------------------------------|
A|--000000-0-00-00--0000000-000-000--|
D|--000000-0-00-00--0000000-000-000--|
    ...... . .. ..  ....... ... ...


E|----------------------------------|
B|----------------------------------|
G|--------------------------10--9---|
D|--------------------------X---X---|
A|-000-000--00-00--000-000--8---7---|
D|-000-000--00-00--000-000----------|
   ... ...  .. ..  ... ...


3:15
E|------|
B|------|
G|------|
D|-0~---|
A|-0~---|
D|-0~---|


    please rate an comment (:
Tap to rate this tab
 
# A B C D E F G H I J K L M N O P Q R S T U V W X Y Z