Asking Alexandria - The Final Episode Lets Change The Channel tab

Final Episode (Let's Change The Channel)
Asking Alexandria.

Please rate and comment.

Drop D

Intro
e|-------0~~--------------------------|
B|-------0~~--------------------------|
G|------------------------------------|
D|--0~--------\piclslide\-------------|
A|--0~--------\pickslide\-------------|
E|--0~--------\pickslide\-------------|

Verse 1 x2
e|---------------------------------------------------------|
B|---------------------------------------------------------|
G|---------------------------------------------------------|
D|---------------------------------------------------------|
A|-000000000000--000000000000--8-----7-----10---8---7h8----|
E|-000000000000--000000000000----0-0---0-0----0---0--------|
   ............  ............    . .   . .    .   . 

e|--------------------------------------------------|
B|--------------------------------------------------|
G|--------------------------------------------------|
D|--------------------------------------------------|
A|-888888888888--12-----10-----8---10---8-----------|
E|-888888888888-----8-8----8-8---8----8-------------|
   ............     . .    . .   .    . 

e|-------------------------------------------------|
B|-------------------------------------------------|
G|-------------------------------------------------|
D|-------------------------------------------------|
A|-777777777777--10-----8-----7---8---7------------|
E|-777777777777-----7-7---7-7---7---7--------------|
   ............     . .   . .   .   .

Verse 2 x4
e|------------------------------------------------------------|
B|------------------------------------------------------------|
G|------------------------------------------------------------|
D|------------------------------------------------------------|
A|--8-----7-----10---8---7h8---8-----7-----10---8---7h8-------|
E|----0-0---0-0----0---0---------0-0---0-0----0---0-----------|
      . .   . .    .   .         . .   . .    .   .

e|----------------------------------------------------------|
B|----------------------------------------------------------|
G|----------------------------------------------------------|
D|----------------------------------------------------------|
A|--12-----10-----8---10---8-----10-----8-----7---8---7-----|
E|-----0-0----0-0---0----0----------0-0---0-0---0---0-------|
       . .    . .   .    .          . .   . .   .   .

Pre-Chorus
e|------------------------------------------------------------------|
B|------------------------------------------------------------------|
G|------------------------------------------------------------------|
D|-------------------4*b--------------------------------------------|
A|--000000000000----------000000000000--8-----7-----10---8---7h8----|
E|--000000000000--0-------000000000000----0-0---0-0----0---0--------|
    ............  .       ............    . .   . .    .   .

e|--------------------------------------------------|
B|--------------------------------------------------|
G|--------------------------------------------------|
D|--------------------------------------------------|
A|-888888888888--12-----10-----8---10---8-----------|
E|-888888888888-----8-8----8-8---8----8-------------|
   ............     . .    . .   .    . 

e|-------------------------------------------------|
B|-------------------------------------------------|
G|-------------------------------------------------| 
D|-------------------------------------------------|
A|-777777777777--10-----8-----7---8---7------------|
E|-777777777777-----7-7---7-7---7---7--------------|
   ............     . .   . .   .   .

Repeat Verse 1 x1

 Guitar 1 x2
e|-------------------------------------------------------------------------|
B|-------------------------------------------------------------------------|
G|-------------------------------------------------------------------------|
D|--0--------7--------8--------5-------------------------------------------|
A|--0-x4-----7-x4-----8-x10----5-x6-------8---7h8---x2---7h8-8-8-8p7-------|
E|--0--------7--------8--------5------000---0------------------------------|
                                      ...   .
 Guitar 2 x2 (play this with the bar thats right on top of this one ^^^)
e|-----------------------------------|
B|------17~-17/20~-18~-17~-15~-------|
G|---14~-----------------------14~~~-|    this is what play's in the 
D|-----------------------------------|    background during the verse.
A|-----------------------------------|    (with delay ofcourse)
E|-----------------------------------|
                                      

 Breakdown intro?
e|--------------------------------------------|
B|--------------------------------------------|
G|---------------------------------------9*/--|
D|--------------------------------------------|
A|------8---7h8------8---7h8------------------|
E|--000---0------000---0-------000-000--------|
    ...   .      ...   .       ... ...

Breakdown
e|-----------------------------------------------|
B|-----------------------------------------------|
G|-----------------------------------------------|
D|-----------------------------------------------|
A|--000-000-000-000--0000-0-0--0000-0-0-0-0------|
E|--000-000-000-000--0000-0-0--0000-0-0-0-0------|
    ... ... ... ...  .... . .  .... . . . .

e|-------------------------------------------|
B|-------------------------------------------|
G|-------------------------------------------|
D|-------------------------------------------|
A|--000-000-000-000--0000-0-0--000-0-0-000---|
E|--000-000-000-000--0000-0-0--000-0-0-000---|
    ... ... ... ...  .... . .  ... . . ...

e|-----------------------------------------------|
B|-----------------------------------------------|
G|-----------------------------------------------|
D|-----------------------------------------------|
A|--000-000-000-000--0000-0-0--0000-0-0-0-0------|
E|--000-000-000-000--0000-0-0--0000-0-0-0-0------|
    ... ... ... ...  .... . .  .... . . . .

e|----------------------------------------|
B|----------------------------------------|
G|----------------------------------------|
D|----------------------------------------|
A|--000-000-000-000--0000-0-0--0-0000-----|
E|--000-000-000-000--0000-0-0--0-0000-----|
    ... ... ... ...  .... . .  . ....

Breakdown Continues
e|------------------------------------------------|
B|------------------------------------------------|
G|------------------------------------------------|
D|------------------------------------------------|
A|-00-00-00-00----000-----00-00-00-00---000000----|
E|-00-00-00-00----000-----00-00-00-00---000000----|
   .. .. .. ..    ...     .. .. .. ..   ......

e|----------------------------------------------------|
B|----------------------------------------------------|
G|----------------------------------------------------|
D|----------------------------------------------------|
A|--00~-00~-00~-00~---000~---00~-00~-00~-00~---000----|
E|--00~-00~-00~-00~---000~---00~-00~-00~-00~---000----|
    ..  ..  ..  ..    ...    ..  ..  ..  ..    ...

Repeat Chorus

Bridge-strum
e|-----------------------------------|
B|-----------------------------------|
G|-----------------------------------|
D|--00000-00000--------------5*------|
A|--00000-00000-(bass)-0000----------|
E|--00000-00000--------0000----------|
                       ....

e|--------------------------------------------------------------------|
B|--------------------------------------------------------------------|
G|-------------------------8-5----------------------------10-7--------|
D|---------------------0-7-----7p0--------------------0-7------9p0----| x4   
A|--00000-00000-00000--------------00000-00000-00000------------------|    
E|--00000-00000-00000--------------00000-00000-00000------------------|
    ..... ..... .....              ..... ..... .....

e|-------|
B|-------|
G|-------|
D|--0~---|
A|--0~---|
E|--0~---|

3:33 
Outro x2 (second time through don't play last 3 \/ \/ \/ notes)       
e|--------------------------------------------------------------|
B|--------------------------------------------------------------|
G|--------------------------------------------------------------|
D|--------------------------------------------------------------|
A|--000~-000~--0-0-0---0-0-0-------000~-000~-0~--0~-0~-0~-------|
E|--000~-000~--0-0-0---0-0-0--x2---000~-000~-0~--0~-0~-0~--x2---| 
    ...  ...           . . .       ...  ...  .   .  .  .

e|----------|
B|----------|
G|----------|
D|--0-0-0---|
A|--0-0-0---|
E|--0-0-0---|
Tap to rate this tab
 
# A B C D E F G H I J K L M N O P Q R S T U V W X Y Z