Asking Alexandria - To The Stage tab

Asking Alexandria
"To The Stage"
Reckless And Relentless (2011)


Tuning Drop C (c g c f a d)

. palm mute
~ let note ring
x mute note
# natural harmonic
/ slide up
\ slide down
p\ pick slide


(0:00-0:21)
(2nd Gtr plays 10's instead of 3's)             (1st, 3rd)  (2nd, 4th)
-----------------------------------------------|-----------|-----------| (x4)
-----------------------------------------------|-----------|-----------|
-----------------------------------------------|-----------|-----------|
-----------------------------------------------|-----------|-----------|
-----------------------------------------------|-----------|-----------|
-0-0-0-0-0-0-0-0-0-0-0-0-0-0-000-0-0-0-0-0-0-0-|-8888-7777-|-8888-3333-|
 .   .   .   .   .   .   .   ...   .   .   .

-------------------------------------------------------------------------

(0:21-0:43)
Gtr 1

--------------------------------------------------------------|
--------------------------------------------------------------|
--------------------------------------------------------------|
----------------------------------------------5---------------|
---8---7---5---7---8---7---555----8---7---5-------8---7---888-|
-0---0---0---0---0---0---0------5---5---5---5---5---5---5-----|
 .   .   .   .   .   .   .      .   .   .   .   .   .   .

---------------------------------------------------------| (x2)
---------------------------------------------------------|
---------------------------------------------------------|
---------------------------------------------------------|
---8---7---5---7---8---7---555----8---7---5--------------|
-0---0---0---0---0---0---0------7---7---7----5-8888-7777-|
 .   .   .   .   .   .   .      .   .   .

Gtr 2

--------------------------------------------------------------------------|
--------------------------------------------------------------------------|
--------------------------------------------------------------------------|
---7-----------------7----------------7---------------8----7----------777-|
-------10---8---10-------10---888----------10----8--------------10--------|
-0---0----0---0----0---0----0------10---10----10---10---10---10----10-----|
 .   .    .   .    .   .    .       .    .     .    .    .    .     .

--------------------------------------------------------------------| (x2)
--------------------------------------------------------------------|
--------------------------------------------------------------------|
---7-----------------7----------------7-----------------------------|
-------10---8---10-------10---888----------10----8------------------|
-7---7----7---7----7---7----7------10---10----10----5-8888-10101010-|
 .   .    .   .    .   .    .       .    .     .

--------------------------------------------------------------------------

(0:43-1:19)
--------------------------------------------------|
--------------------------------------------------|
--------------------------------------------------|
-0~-----------------------------------------------|
-0~--0--0~-00000~-00000~-00-0~-00000~-00000~-00-0-|
-0~--0--0~-00000~-00000~-00-0~-00000~-00000~-00-0-|
     .  .  .....  .....  .. .  .....  .....  .. .

(rake the 3 harmonics)
---------------------------------------3#---------|
----------------------------------------3#-----5~-|
-----------------------------------------3#----8~-|
------------------------------------------3#------|
-00000--00000-00-0--00000--00000-00-0~-----3#-----|
-00000--00000-00-0--00000--00000-00-1~------------|
 .....  ..... .. .  .....  ..... .. .

----------------------------------------|
----------------------------------------|
----------------------------------------|
----------------------------------------|
-0-00000--00000-00-0--00000--00000-00-0-|
-0-00000--00000-00-0--00000--00000-00-0-|
 . .....  ..... .. .  .....  ..... .. .

--------------------------------------------------------------------------

(1:19-1:20)
Gtr 1        Gtr 2
------------|---------|
------------|---------|
-12\10-1010-|-7-7-7-7-|
--x\-x--x-x-|-x-x-x-x-|
-10\-8--8-8-|-5-5-5-5-|
------------|---------|

--------------------------------------------------------------------------

(1:20-1:50)
Gtr 1         Gtr 2        Gtr 3
(figure out strumming)
-------------|------------|----------------| (x2)
-------------|------------|----------------|
----5--3--3--|-7--5--3--3-|-14--12--10--10-|
-0--5--3--3--|-x--x--x--x-|--x---x---x---x-|
-0--3--1--1--|-5--3--1--1-|-12--10---8---8-|
-0-----------|------------|----------------|

--------------------------------------------------------------------------

(1:50-1:59)
           Gtr 1      Gtr 2
           (figure strumming)
----------|----------|----------|
----------|----------|----------|
----------|-10--9--7-|-7--9--10-|
-0~-------|--x--x--x-|-x--x---x-|
-0~--p\\\-|--8--7--5-|-5--7---8-|
-0~--p\\\-|----------|----------|

--------------------------------------------------------------------------

(1:59-2:11)
(2nd Gtr plays 10's instead of 3's)
  						(1st, 3rd)  (2nd, 4th)
-----------------------------------------------|-----------|-----------|
-----------------------------------------------|-----------|-----------|
-----------------------------------------------|-----------|-----------|
-----------------------------------------------|-----------|-----------|
-----------------------------------------------|-----------|-----------|
-0-0-0-0-0-0-0-0-0-0-0-0-0-0-000-0-0-0-0-0-0-0-|-8888-7777-|-8888-3333-|
 .   .   .   .   .   .   .   ...   .   .   .


--------------------------------------------------------------------------

(2:11-2:23)
---------------------------------------------|
---------------------------------------------|
---------------------------------------------|
---------------------------------------------|
-00~--00~-00~-00~--00~-00~-00--0-00-00-00--0-|
-00~--00~-00~-00~--00~-00~-00--0-00-00-00--0-|
 ..   ..  ..  ..   ..  ..  ..  . .. .. ..  .

--------------------------------------------------------------------------

(2:23-2:56)
(figure strumming)
             (1st,3rd) (2nd)
-------------|--------|---------- (x3) ----|
-------------|--------|----------      ----|
-6--8--9--11-|--9--8--|-14-13-11-      -6~-|
-x--x--x---x-|--x--x--|--x--x--x-      -x--|
-4--6--7---9-|--7--6--|-12-11--9-      -4~-|
-------------|--------|----------      ----|
Tap to rate this tab
 
# A B C D E F G H I J K L M N O P Q R S T U V W X Y Z