Song name
# A B C D E F G H I J K L M N O P Q R S T U V W X Y Z

Asking Alexandria - Someone Somewhere tab

-----------------------------------------------------------------------------
			     SOMEONE SOMEWHERE - Asking Alexandria
-----------------------------------------------------------------------------
Tabbed by:Crane1233
Email:crane1233@live.com

Tuning:drop d

0:00
e|--------------------|
B|--------------------|
G|--------------------|  (x2)
D|--------------------|
A|--5----8----3----0--|
D|--5----8----3----0--|

0:24
e|-----------------------------------------------------------|
B|-----------------------------------------------------------|
G|-----------------------------------------------------------|
D|-----------------------------------------------------------|
A|--5-555-555-55-5/8-888-888-8-8/3-333-333-33-3/0-000-000-0--|
D|--5-555-555-55-5/8-888-888-8-8/3-333-333-33-3/0-000-000-0--|

0:35
e|------------------------------------------------------------|
B|------------------------------------------------------------|
G|------------------------------------------------------------|
D|----------5---7---------5---7--------------7----------7-----|
A|------8-------------8-------------8---10---------8----------|
D|--555---5---5---555---5---5---888---8----8---888---88---10--|
     
e|---------------------------------------------------------|
B|---------------------------------------------------------|
G|--------------------------------------------7-5-5--------| (x2)
D|------3---5---7-----3---5---7-----3---5---7----8-8-7-5---|
A|-------------------------------------------------------8-|
D|--333---3---3---333---3---3---000---0---0----------------|

1:01
e|-------------------------------------------------------------|
B|-------------------------------------------------------------|
G|--3------5------7------5------3------5------7------5------3--|
D|--3-(x8)-5-(x8)-7-(x8)-5-(x8)-3-(x8)-5-(x8)-7-(x8)-5-(x8)-3--|
A|--1------3------5------3------1------3------5------3------1--|
D|-------------------------------------------------------------|

1:27
e|------------------------------------------------------------|
B|------------------------------------------------------------|
G|------------------------------------------------------------|
D|----------5---7---------5---7--------------7----------7-----|
A|------8-------------8-------------8---10---------8----------|
D|--555---5---5---555---5---5---888---8----8---888---88---10--|

e|---------------------------------------------------------|
B|---------------------------------------------------------|
G|--------------------------------------------7-5-5--------| (x2)
D|------3---5---7-----3---5---7-----3---5---7----8-8-7-5---|
A|-------------------------------------------------------8-|
D|--333---3---3---333---3---3---000---0---0----------------|

1:38
e|-----------------------------------------------------------|
B|-----------------------------------------------------------|
G|-----------------------------------------------------------|
D|-----------------------------------------------------------|
A|--5-555-555-55-5/8-888-888-8-8/3-333-333-33-3/0-000-000-0--|
D|--5-555-555-55-5/8-888-888-8-8/3-333-333-33-3/0-000-000-0--|

1:51
e|------------------------------------------------------------|
B|------------------------------------------------------------|
G|--3------5------7------5------3------5------7------5--------|
D|--3-(x8)-5-(x8)-7-(x8)-5-(x8)-3-(x8)-5-(x8)-7-(x8)-5-(x8)---|
A|--1------3------5------3------1------3------5------3--------|
D|------------------------------------------------------------|

2:15 No Solo Yet
e|--------------------------------------------------------------------------|
B---------------------------------------------------------------------------|
G|--------------------------------------------------------------------------|
D|-3p2------------------3p2----------------3p2------------------------------|
A|-----3h5-000-000-0000-----3h5-00-000-000-----3h5-000-000-0000-3-333-8-888-|
D|---------000-000-0000---------00-000-000---------000-000-0000-3-333-8-888-|

e|--------------------------------------------------------------------------|
B---------------------------------------------------------------------------|
G|--------------------------------------------------------------------------|
D|-3p2------------------3p2----------------3p2------------------------------|
A|-----3h5-000-000-0000-----3h5-00-000-000-----3h5-000-000-0000-3-333-8-888-|
D|---------000-000-0000---------00-000-000---------000-000-0000-3-333-8-888-|

2:41
e|------------------------------------------------------------|
B|------------------------------------------------------------|
G|--3------5------7------5------3------5------7------5--------| (x2)
D|--3-(x8)-5-(x8)-7-(x8)-5-(x8)-3-(x8)-5-(x8)-7-(x8)-5-(x8)---|
A|--1------3------5------3------1------3------5------3--------|
D|------------------------------------------------------------|

3:30
e|------------------------------------------|
B-------------------------------------------|
G|------------------------------------------|
D|-3p2------------------3p2-----------------|
A|-----3h5-000-000-0000-----3h5-00-000-000--|
D|---------000-000-0000---------00-000-000--|


************************************

| /   slide up
| \   slide down
| h   hammer-on
| p   pull-off
| ~   vibrato
| +   harmonic
| x   Mute note
| b   Bend
| pb  Pre-bend
| br  Bend release
| pbr Pre-bend release
| brb Bend release bend

************************************
Tap to rate this tab
 
# A B C D E F G H I J K L M N O P Q R S T U V W X Y Z