Song name
# A B C D E F G H I J K L M N O P Q R S T U V W X Y Z

Asking Alexandria - Another Bottle Down tab

Artist:	Asking Alexandria                            Tabbed by: Josey Stines
Song:	Another Bottle Down
Album:	Reckless and Relentless
Year:	2011
Tuning:	Drop C
____________________________________________________________________________
D	|---------|
A	|---------|
F	|---------|
C	|---0~----|
G	|---0~----|
C	|---0~----|

0:07
D	|--------------------------------|
A	|--------------------------------|
F	|--------------------------------|
C	|--------------------------------| x2
G	|--------------------------------|
C	|---0--(x8)--8--(x8)--3--(x16)---|

0:15
D	|----------------------------------------|
A	|----------------------------------------|
F	|---------------------2p0----------------|
C	|---------------5h9------0---------------|
G	|---------5h9---------------0-0---0-00---|
C	|---5h9---------------------0-0---0-00---|
                              * *   * **
0:18  
D	|---------------------------------------------|
A	|---------------------------------------------|
F	|---------------------2p0---------------------|
C	|---------------5h9------0--------------------|
G	|---------5h9---------------0-0---0000-0000---|
C	|---5h9---------------------0-0---0000-0000---|
                              * *   **** ****
0:23
D	|----------------------------------------------------|
A	|----------------------------------------------------|
F	|---------------------2p0----------------------------|
C	|---------------5h9------0---------------------------|
G	|---------5h9---------------0-0---------------0-00---|
C	|---5h9---------------------0-0--0(divebomb)--0-00---|
                              * *               * **  
0:27  
D	|----------------------------------------------------------------|
A	|----------------------------------------------------------------|
F	|---------------------2p0----------------------------------------|
C	|---------------5h9------0---------------------------------------|
G	|---------5h9---------------0---------------------0000-0000--0---|
C	|---5h9---------------------0-0(pinch harmonic)---0000-0000--0---|
                              * *                   **** ****  *

0:36, 0:52
D	|-------------------------------------------------------------|
A	|-------------------------------------------------------------|
F	|---10--------5---------10--------5--------10-------7---------|
C	|---x--(x16)--x--(x16)--x--(x16)--x--(x8)--x--(x4)--x--(x4)---| x2
G	|---8---------3---------8---------3--------8--------5---------|
C	|-------------------------------------------------------------|

1:07
D	|----------------------------------------------|
A	|----------------------------------------------|
F	|----------------------------------------------|
C	|--------------------------------pau|e---------|
G	|---0~--0000~-00~-0~-00~-0-0-0-----------0-0---|
C	|---0~--0000~-00~-0~-00~-1-1-1-----------1-1---|
      *   ****  **  *  **  * * *           * *

1:16, 1:24, 1:32, 1:40
D	|---------------------------------------------------------|
A	|---------------------------------------------------------|
F	|---------------------------------------------------------|
C	|---------------------------------------------------------| x4
G	|---0~--0000~-00~--0~-00~-00~-0~-0000~-00~-0-0-0-0-0000---|
C	|---0~--0000~-00~--0~-00~-00~-0~-0000~-00~-1-1-1-1-1111---|
      *   ****  **   *  **  **  *  ****  **  * * * * ****
1:48
D	|-------|
A	|-------|
F	|-------|
C	|---0~--|
G	|---0~--|
C	|---0~--|

1:55
D	|----------|
A	|----------|
F	|----------|
C	|----------|
G	|---0000---|
C	|---0000---|
      ****
1:58, 2:02, 2:06, 2:10 
D	|--------------------------------|
A	|--------------------------------|
F	|--------------------------------|
C	|--------------------------------| x4
G	|--------------------------------|
C	|---0--(x8)--8--(x8)--3--(x16)---|

2:14, 2:17, 2:21, 2:25
D	|----------------------------------|
A	|-------------14-------------------|
F	|-------------17-------------------|
C	|----------------------------------| x4
G	|---000-000-------0-0--0000-0000---|
C	|---000-000-------0-0--0000-0000---|
      *** ***       * *  **** ****
2:29, 2:46
D	|-------------------------------------------------------------|
A	|-------------------------------------------------------------|
F	|---10--------5---------10--------5--------10-------7---------|
C	|---x--(x16)--x--(x16)--x--(x16)--x--(x8)--x--(x4)--x--(x4)---| x2
G	|---8---------3---------8---------3--------8--------5---------|
C	|-------------------------------------------------------------|

3:02
D	|----------------------|
A	|----------------------|
F	|----------------------|
C	|---0~---(pick|lide)---|
G	|---0~-----------------|
C	|---0~-----------------|

3:08
D	|--------------------------------------------------|
A	|--------------------------------------------------|
F	|--------------------------------------------------|
C	|--------------------------------------------------|
G	|---00-00-00-00-00-00-00--0-00000--0-00-00-00000---|
C	|---00-00-00-00-00-00-00--0-00000--0-00-00-00000---|
      ** ** ** ** ** ** **  * *****  * ** ** *****
3:15
D	|----------------------------------------------------------------|
A	|----------------------------------------------------------------|
F	|----------------------------------------------------------------|
C	|----------------------------------------------------------------|
G	|---00-00-00-00-00-00-00-0--------------0-00000--0-00-00-00000---|
C	|---00-00-00-00-00-00-00-0-121212121212-0-00000--0-00-00-00000---|
      ** ** ** ** ** ** ** *              * *****  * ** ** *****
3:21, 3:27
D	|-------------------------------------------------------|
A	|-------------------------------------------------------|
F	|-------------------------------------------------------|
C	|-------------------------------------------2p0-0-------|
G	|---00-00-00-00-00-00-00--0-00000--0-00-00--------555---|
C	|---00-00-00-00-00-00-00--0-00000--0-00-00--------------|
      ** ** ** ** ** ** **  * *****  * ** **
      ** ** ** ** ** ** **  * *****  * ** **




Legend:
~	Let Note Ring
h	Hammer-on
p	Pull-off
*	Palm Mute

END
Tap to rate this tab
# A B C D E F G H I J K L M N O P Q R S T U V W X Y Z