Song name
# A B C D E F G H I J K L M N O P Q R S T U V W X Y Z

Asking Alexandria - Reckless And Relentless tab

Artist: Asking Alexandria				Tabbed by: Josey Stines
Song:	Reckless & Relentless 
Album:	Reckless and Relentless
Year:	2011
Tuning:	Drop C
______________________________________________________________________________
0:12
D	|---------------------------------------------|
A	|---------------------------------------------|
F	|---------------------------------------------|
C	|---------------------------------------------|
G	|---------------------------------------------|
C	|---0--(x16)--10--(x16)--7--(x16)--8--(x16)---|

0:24
D	|----------------------------------------------------------------------|
A	|----------------------------------------------------------------------|
F	|----------------------------------------------------------------------|
C	|----------------------------------------------------------------------|
G	|---0000~-0~--00000~--0~-0~-0~-0~-0~-0~-0~--0~--00000--0-0--0-0-0-0--0-|
C	|---0000~-0~--00000~--0~-0~-0~-0~-0~-0~-0~--0~--00000--0-0--0-0-0-0--0-|
            ****  *   *****   *  *  *  *  *  *  *   *   *****  * *  * * * *  *

---------------------------------------|
---------------------------------------|
---------------------------------------|
---------------------------------------|
-00000-0-0--0-0-0-0-0--0--00000--0-0---|
-00000-0-0--0-0-0-0-0--0--00000--0-0---|
 *  *  ***** * *  * * * * *  *  *****
0:36, 0:38, 0:41, 0:44
D	|-------------------------------|
A	|-------------------------------|
F	|-------------------------------|
C	|-------------------------------| x4
G	|------------------------10-8---|
C	|---8-0-0-7-0--0-000-8-7--------|
              * *   *  * ***
0:47
D	|----------------------------------|
A	|----------------------------------|
F	|---14--------12--------7----------|
C	|---x--(x32)--x--(x16)--x--(x16)---|
G	|---12--------10--------5----------|
C	|----------------------------------|

1:00
D	|------------------------------------------------------------|
A	|------------------------------------------------------------|
F	|---10--------12-------9--------7---------10-------6---------|
C	|---x--(x16)--x--(x8)--x--(x8)--x--(x16)--x--(x8)--x--(x8)---|
G	|---8---------10-------7--------5---------8--------4---------|
C	|------------------------------------------------------------|

1:13
D	|------------------------------------------------------------|
A	|------------------------------------------------------------|
F	|---7---------12-------9--------7---------10-------6---------|
C	|---x--(x16)--x--(x8)--x--(x8)--x--(x16)--x--(x8)--x--(x8)---|
G	|---5---------10-------7--------5---------8--------4---------|
C	|------------------------------------------------------------|

1:26	(Guitar One)
D|------------------------------------------------------------------------------------------------|
A|------------------------------------------------------------------------------------------------|
F|----------------------------------------10-9-7--9h10p9-7h9p7-5h7p9------------------------------|
C|--------------------------7---10-8---------------------------------7-8-8-7------8-7-8-10-10-8-7-|
G|---5---5-7-8-7-8-10-8-------8------8-12------------------------------------10-8-----------------|
C|----------------------10------------------------------------------------------------------------|
	(Guitar Two)
D	|-------------------------------------------|
A	|-------------------------------------------|
F	|---7---------5---------3---------5---------|
C	|---0---------2---------3--(x16)--5--(x16)--|
G	|---5--(x16)--3--(x16)--1---------3---------|
C	|---0---------2-----------------------------|

1:38, 1:40, 1:43, 1:46
D	|-----13-10-------15-16-------------------------|
A	|-----------12-13-------------------------------|
F	|-----------------------------------------------|
C	|-----------------------------------------------| x4
G	|---0-------------------00-00-0-0-000-0-00-00---|
C	|---0-------------------00-00-0-0-000-0-00-00---|
            *                   ** ** * * *** * ** **
1:48
D	|-------|
A	|-------|
F	|-------|
C	|-------|
G	|---0---|
C	|---0---|
            *
1:52, 1:58
D	|-----------------------------------|
A	|-----------------------------------|
F	|-----------------------------------|
C	|-----------------------------------| x2
G	|---0-0-0-0~--0-0-0-0~--000-0-0-0---|
C	|---1-1-1-1~--1-1-1-1~--111-1-1-1---|
            * * * *   * * * *   *** * * *
2:04, 2:10
D	|-----------------------------------|
A	|-----------------------------------|
F	|-----------------------------------|
C	|-----------------------------------| x2
G	|---0-0-0-0~--0-0-0-0~--000-0-0-0---|
C	|---0-0-0-0~--0-0-0-0~--000-0-0-0---|
            * * * *   * * * *   *** * * *
2:16
D	|----------------------------------------------------------------------------------------|
A	|----------------------------------------------------------------------------------------|
F	|--7--------10-------9--------2--------7--------10-------12-------14---------------------|
C	|--x--(x8)--x--(x8)--x--(x8)--x--(x8)--x--(x8)--x--(x8)--x--(x8)--x--(x8)-------------0~-|
G	|--5--------8--------7--------0--------5--------8--------10-------12--------00~-0~-0~-0~-|
C	|---------------------------------------------------------------------------11~-1~-1~-0~-|
                                                                                     **  *  *
2:31
D	|------------------------------------------------------------|
A	|------------------------------------------------------------|
F	|---10--------12-------9--------7---------10-------6---------|
C	|---x--(x16)--x--(x8)--x--(x8)--x--(x16)--x--(x8)--x--(x8)---|
G	|---8---------10-------7--------5---------8--------4---------|
C	|------------------------------------------------------------|

2:43
D	|------------------------------------------------------------|
A	|------------------------------------------------------------|
F	|---7---------12-------9--------7---------10-------6---------|
C	|---x--(x16)--x--(x8)--x--(x8)--x--(x16)--x--(x8)--x--(x8)---|
G	|---5---------10-------7--------5---------8--------4---------|
C	|------------------------------------------------------------|

2:55
D	|-------------|
A	|-------------|
F	|--------0~---|
C	|---0~---0~---|
G	|---0~---0~---|
C	|---0~---0~---|

3:05, 3:11
D	|---------------------------------------------------------------------|
A	|---------------------------------------------------------------------|
F	|---------------------------------------------------------------------|
C	|---------------7----5---3---5---7----------------8---7---5---3---2---| x2
G	|---8---3---5-------------------------8---3---5-----------------------|
C	|-----0---0---0---0----0---0---0---0----0---0---0---0---0---0---0-----|
              *   *   *   *    *   *   *   *    *   *   *   *   *   *   *
3:16
D	|--------------------------------------------------------|
A	|--------------------------------------------------------|
F	|--------------------------------------------------------|
C	|--------------------------------------------------------|
G	|---00~--0000~-00~--00~--0000~--00~-0000~-00-00~--0000~--|
C	|---00~--0000~-00~--00~--0000~--00~-0000~-11-00~--0000~--|
            **   ****  **   **   ****   **  ****  ** **   ****
3:27
D	|---------------------------------------------------------|
A	|---------------------------------------------------------|
F	|---------------------------------------------------------|
C	|---------------------------------------------------------|
G	|---00--0000--00--00 0000--00-0000-00--00-0000--0~-0~-0---|
C	|---00--0000--11--00-0000--00-0000-11--00-0000--1~-1~-0---|
            **  ****  **  ** ****  ** **** **  ** ****  *  *  *

Legend:
*	Palm Mute
~	Let Note Ring
x	Dead Note
h	Hammer-On
p	Pull-Off

END
Tap to rate this tab
 
# A B C D E F G H I J K L M N O P Q R S T U V W X Y Z