Song name
# A B C D E F G H I J K L M N O P Q R S T U V W X Y Z

Asking Alexandria - Morte Et Dabo tab

Artist:	Asking Alexandria				Tabbed by: Josey Stines
Song:	Morte et Dabo
Album:	Reckless and Relentless
Year:	2011
Tuning:	Drop C
______________________________________________________________________________
0:22, 0:26, 0:31, 0:36
D	|-------------------------------------------------------|
A	|-------------------------------------------------------|
F	|-------------------------------------------------------|
C	|-------------------------------------------------------| x4
G	|-------------4---5-------------------------------------|
C	|---8-0-0-0-0---0---00000000-8-0-0-0-0-4-0-0-88887777---|
              * *   *   *   ********   * *   *   * *
0:40, 0:45
D	|---------------------------------------|
A	|---------------------------------------|
F	|---------------------------------------|
C	|---------------------------------------| x2
G	|---0000~-0000~--000~-0000~-0000~-00~---|
C	|---1111~-1111~--111~-1111~-1111~-11~---|
            ****  ****   ***  ****  ****  **
0:50, 0:54, 0:59, 1:03
D	|-------------------------------------------------------|
A	|-------------------------------------------------------|
F	|-------------------------------------------------------|
C	|-------------------------------------------------------| x4
G	|-------------4---5-------------------------------------|
C	|---8-0-0-0-0---0---00000000-8-0-0-0-0-4-0-0-88887777---|
              * *   *   *   ********   * *   *   * *
1:09
D	|-------------------------------------------------------------------|
A	|-------------------------------------------------------------------|
F	|---10--------9--------10--------5-------9--------10--------9-------|
C	|---x--(x24)--x--(x8)--x--(x16)--x--(8)--x--(x8)--x--(x24)--x--(x8)-|
G	|---8---------7--------8---------3-------7--------8---------7-------|
C	|-------------------------------------------------------------------|

-----------------------------------|
-----------------------------------|
-10--------5--------9--------10~---|
-x--(x16)--x--(x8)--x--(x8)--x~----|
-8---------3--------7--------8~----|
-----------------------------------|
1:29, 1:36, 1:42
D	|-----------------------------------------------|
A	|-----------------------------------------------|
F	|-----------------------------------------------|
C	|-----------------------------------------------| x3
G	|---000000-0000-000000-000-00-000000-000000-0---|
C	|---000000-0000-000000-000-00-000000-000000-0---|
            ****** **** ****** *** ** ****** ****** *
1:47
D	|-----------------------------------------|
A	|-----------------------------------------|
F	|-----------------------------------------|
C	|-----------------------------------------|
G	|---10-10-10-10-6-6-6-6-9-9-9-9-5-5-5-5---|
C	|-----------------------------------------|

1:48
D	|----------------------------------------------------|
A	|----------------------------------------------------|
F	|----------------------------------------------------|
C	|----------------------------------------------------|
G	|---000000-0000-000000-000-00-000000-00000-000-000---|
C	|---000000-0000-000000-000-00-000000-00000-000-000---|
            ****** **** ****** *** ** ****** ***** *** ***
1:55
D	|-----------------------------------------------------|
A	|-----------------------------------------------------|
F	|-----------------------------------------------------|
C	|------------(Let Notes Ring This Time)---------------| 
G	|---000000~-0000~-000000~-000~-00~-000000~-000000~----|
C	|---000000~-0000~-000000~-000~-00~-000000~-000000~----|
            ******  ****  ******  ***  **  ******  ******  
2:00
D	|-----------------------------------------|
A	|-----------------------------------------|
F	|-----------------------------------------|
C	|-----------------------------------------|
G	|---10-10-10-10-6-6-6-6-9-9-9-9-5-5-5-5---|
C	|-----------------------------------------|

2:02
D	|----------------------------------------------------|
A	|----------------------------------------------------|
F	|----------------------------------------------------|
C	|----------------------------------------------------|
G	|---000000-0000-000000-000-00-000000-00000-000-000---|
C	|---000000-0000-000000-000-00-000000-00000-000-000---|
            ****** **** ****** *** ** ****** ***** *** ***
2:10, 2:45
D	|----------------------|
A	|----------------------|
F	|----------------------|
C	|----------------------| x2
G	|---00-0--0-00--00-0---|
C	|---00-0--0-00--00-0---|
            ** *  * **  ** *
2:19, 2:24
D	|----------------------------|
A	|----------------------------|
F	|----------------------------|
C	|----------------------------| x2
G	|---00~-0~--0~-00~--00~-0~---|
C	|---11~-1~--1~-11~--11~-1~---|
            **  *   *  **   **  *
2:28, 2:33
D	|------------------------------------------------|
A	|------------------------------------------------|
F	|------------------------------------------------|
C	|------------------------------------------------| x2
G	|---0000000000000000-0000000000-000-000-000000---|
C	|---0000000000000000-0000000000-000-000-000000---|
            **************** ********** *** *** ******
2:37
D	|-----------------------------------------------------|
A	|-----------------------------------------------------|
F	|-----------------------------------------------------|
C	|---------(Let Notes Ring This Time)------------------| 
G	|---0000000000000000~-0000000000~-000~-000~-000000~---|
C	|---0000000000000000~-0000000000~-000~-000~-000000~---|
            ****************  **********  ***  ***  ******
2:41
D	|-----------------------------------------------------------|
A	|----------------------------------------------11-----------|
F	|----------------------------------------------14-----------|
C	|-----------------------------------------------------------| 
G	|---0000000000000000-0000000000-000-000-000000----0--0--0---|
C	|---0000000000000000-0000000000-000-000-000000----0--0--0---|
            **************** ********** *** *** ******    *  *  *
2:48
D	|-------------------------------------------------------------------|
A	|-------------------------------------------------------------------|
F	|---10--------9--------10--------5-------9--------10--------9-------|
C	|---x--(x24)--x--(x8)--x--(x16)--x--(8)--x--(x8)--x--(x24)--x--(x8)-|
G	|---8---------7--------8---------3-------7--------8---------7-------|
C	|-------------------------------------------------------------------|

-----------------------------------|
-----------------------------------|
-10--------5--------9--------10~---|
-x--(x16)--x--(x8)--x--(x8)--x~----|
-8---------3--------7--------8~----|
-----------------------------------|

3:25, 3:43
D	|---------------------------------------------------------------------|
A	|---------------------------------------------------------------------|
F	|---------------------------------------------------------------------|
C	|---------------------------------------------------------------------|
G	|---------------------------------------------------------------------|
C	|---8-8-8-8-8-8-8-8-5-5-5-5-5-5-5-5-7-7-7-7-7-7-7-7-3-3-3-3-3-3-3-3---|

D	|-------------------------------------------------------------------------|
A	|-------------------------------------------------------------------------|
F	|-------------------------------------------------------------------------|
C	|-------------------------------------------------------------------------| x2
G	|-------------------------------------------------------------------------|
C	|---8-8-8-8-8-8-8-8-5-5-5-5-5-5-5-5-7-7-7-7-7-7-7-7-10-10-10-10-5-5-5-5---|

4:03
D	|-------|
A	|-------|
F	|-------|
C	|-------|
G	|-------|
C	|---8~--|

Legend:
*	Palm Mute
~	Let Note Ring
x	Dead Note

END
Tap to rate this tab
 
# A B C D E F G H I J K L M N O P Q R S T U V W X Y Z