Song name
# A B C D E F G H I J K L M N O P Q R S T U V W X Y Z

Asking Alexandria - The Match tab

Artist:	Asking Alexandria				Tabbed by: Josey Stines
Song:	The Match
Album:	Reckless and Relentless
Year:	2011
Tuning:	Drop C
______________________________________________________________________________
0:00
E	½---------------------------------------------------------|
B	½---------------------------------------------------------|
G	½---------------------------------------------------------|
D	½---------------------------------------------------------|
A	½---12-----10-----13---12---10h12--12-----10-----13---12--|
D	½------0-0----0-0----0----0-----------0-0----0-0----0----0|

E       ------------------------------------------------------------½
B       ------------------------------------------------------------½
G       ------------------------------------------------------------½
D       --------10-----8----------8-------8-----7----------7--------½
A       -10h12---------------12-------12--------------10-------10---½
       -----------0-0---0-0----0---0-------0-0---0-0----0---0------½

0:10
D	-------------------------------------------------------------------------
A	-------------------------------------------------------------------------
F	---7---------5--------9--------10--------15-------12-------14------------
C	---x--(x16)--x--(x8)--x--(x8)--x--(x16)--x--(x8)--x--(x4)--x--(x4)--0~---
G	---5---------3--------7--------8---------13-------10-------12-------0~---
C	--------------------------------------------------------------------0~---

0:21
D	-------------------------------------------------
A	-------------------------------------------------
F	-------------------------------------------------
C	-------------------------------------------------
G	---0000-0000-0-0--0-00000-0-0000-0000-0000-0-0---
C	---0000-0000-0-0--0-00000-0-0000-0000-0000-0-0---
             **** **** * *  * ***** * **** **** **** * *
0:32, 3:34
D	-----------------------------------
A	-----------------------------------
F	-----------------------------------
C	----------------------------------- x2
G	---0000-0000-0-0--0-00000-0-0000---
C	---0000-0000-0-0--0-00000-0-0000---
             **** **** * *  * ***** * ****
0:38
D	-------------------------------------------
A	-------------------------------------------
F	-------------------------------------------
C	----------(Let the Notes Ring)------------- 
G	---0000~-0000~-0~-0~--0~-00000~-0~-0000~---
C	---0000~-0000~-0~-0~--0~-00000~-0~-0000~---
             ****  ****  *  *   *  *****  *  ****
0:42
D	---------------------------------------
A	---------------------------------------
F	------------------14-14-12-9-10-10-9---
C	------------------x--x--x--x-x--x--x---
G	---0000-0000-0-0--12-12-10-7-8--8--7---
C	---0000-0000-0-0-----------------------
             **** **** * *
0:45, 0:56
D	----------------------------------------
A	----------------------------------------
F	---7-7-7-7--10-10-10-10-----------------
C	---x-x-x-x--x--x--x--x------------------
G	---5-5-5-5--8--8--8--8--8-88-88-77777---
C	------------------------8-88-88-77777---

D	----------------------------------------
A	----------------------------------------
F	---7-7-7-7--10-10-10-10-----------------
C	---x-x-x-x--x--x--x--x------------------ x2
G	---5-5-5-5--8--8--8--8--3-33-33-33333---
C	------------------------3-33-33-22222---

1:08
D	----------------------------------------------
A	----------------------------------------------
F	----------------------------------------------
C	----------------------------------------------
G	---0-0000-0-0-0-0000000-000000-0-0000-0-0-0---
C	---0-0000-0-0-0-0000000-000000-0-0000-0-0-0---
             * **** * * * ******* ****** * **** * * *
1:15, 1:19, 1:22, 1:26
D	---------------------------------------
A	---------------------------------------
F	---------------------------------------
C	--------------------------------------- x4
G	---0-0000--------0-0000-0000-----7-8---
C	---0-0000-5b-10b-0-0000-0000-0-7-------
             * ****        * **** ****
1:2, 1:32
D	-------------------------
A	-------------------------
F	-------------------------
C	------------------------- x2
G	---0000-0000-0000-0000---
C	---0000-0000-0000-0000---
             **** **** **** ****
1:35, 1:45   
D	----------------------------------------
A	----------------------------------------
F	---7-7-7-7--10-10-10-10-----------------
C	---x-x-x-x--x--x--x--x------------------
G	---5-5-5-5--8--8--8--8--8-88-88-77777---
C	------------------------8-88-88-77777---

D	----------------------------------------
A	----------------------------------------
F	---7-7-7-7--10-10-10-10-----------------
C	---x-x-x-x--x--x--x--x------------------ x2
G	---5-5-5-5--8--8--8--8--3-33-33-33333---
C	------------------------3-33-33-22222---

1:56
D	-------------
A	-------------
F	-------------
C	---0~-0------
G	---0~-0~-0---
C	---0~-0~-0---
                   *
2:06
D	------------------------------------------------------------------
A	------------------------------------------------------------------
F	------------------------------------------------------------------
C	------------------------------------------------------------------
G	-----------0-0-0-00-0-00-0-0-00---------0-0-0-00-0-0-0-0-0-0000---
C	---12b-12b-0-0-0-00-0-00-0-0-00-14b-14b-0-0-0-00-1-1-1-1-1-1111---
                     *   * ** * **   * **         *   * ** * * *   * ****
2:14
D	-------------------------------------------------------------------
A	-------------------------------------------------------------------
F	-------------------------------------------------------------------
C	-------------------------------------------------------------------
G	-----------0-0-0-00-0000-0-0-00---------0-0-0-00-0000-0-0----------
C	---12b-12b-0-0-0-00-0000-0-0-00-11b-11b-0-0-0-00-0000-0-0-0-(db)---
                     *   * ** ****   * **         *   * ** ****   * 
2:22
D	---------------------------------------------------------------------
A	---------------------------------------------------------------------
F	---------------------------------------------------------------------
C	---------------------------------------------------------------------
G	-----------0-0-0-0-0-0-0-0-0-0-0-0---------0-0-0-0-0-0-0-0-0-0-0-0---
C	---15b-14b-0-0-0-0-0-0-0-0-0-0-0-0-14b-13b-0-1-1-1-1-1-1-1-1-1-1-1---
                       * * * * * * * * * * *           * * * * * * * * * * *
2:30
D	-------------------------------------------------------------------
A	-------------------------------------------------------------------
F	-------------------------------------------------------------------
C	-------------------------------------------------------------------
G	-----------0-0-00--0-0-0-0-0-0-0---------0-0-0-0-0-0-0-0-0-0-0-0---
C	---15b-14b-0-0-00--0-0-0-0-0-0-0-14b-13b-0-1-1-1-1-1-1-1-1-1-1-1---
                       * **  * * * * * * *           * * * * * * * * * * *
2:40
D	-----------------
A	-----------------
F	-----------------
C	-----------------
G	---0~-0~-0~-0~---
C	---1~-1~-1~-1~---
             *  *  *  *
2:44
D	------------------------------
A	-------------------------9----
F	-------------------------12---
C	------------------------------
G	---0--0-0-0-0--0-0-0----------
C	---0--0-0-0-0--0-0-0-1p0------
             *  * * * *  * * *
2:48
D	------------------------------------------------------
A	-------------------------------------------------9----
F	-------------------------------------------------12---
C	------------------------------------------------------
G	---0--0-0-0-0--0-0-0-0--0--0--0-0-0-0--0-0-0----------
C	---0--0-0-0-0--0-0-0-0--0--1--1-1-1-1--1-1-1-1p0------
             *  * * * *  * * * *  *  *  * * * *  * * *
2:57
D	--------------------------------
A	--------------------------------
F	--------------------------------
C	--------------------------------
G	---0--0-0-0-0--0-0-0-0--0--0~---
C	---1--1-1-1-1--1-1-1-1--1--0~---
             *  * * * *  * * * *  * 
3:41
D	------------------------------------------
A	------------------------------------------
F	------------------------------------------
C	------------------------------------------
G	---00--00-00--00-00-0000--00-00-00-0000---
C	---00--00-00--00-00-0000--00-00-00-0000---
             **  ** **  ** ** ****  ** ** ** ****
3:49
D	-----------------------------------------------------
A	-----------------------------------------------------
F	-----------------------------------------------------
C	---(Let the Notes Ring)------------------------------
G	---00~-00~-00~--00~-00~-00~--00~-00~-00~-00~-0000~---
C	---00~-00~-00~--00~-00~-00~--00~-00~-00~-00~-0000~---
             **  **  **   **  **  **   **  **  **  **  ****
3:55
D	--------------------------------------------
A	--------------------------------------------
F	--------------------------------------------
C	--------------------------------------------
G	---0000--00-00--00-00-0000--00-00-00-0000---
C	---0000--00-00--00-00-0000--00-00-00-0000---
             ****  ** **  ** ** ****  ** ** ** ****
4:02
D	----------------------------------------------------------
A	----------------------------------------------------------
F	----------------------------------------------------------
C	---(Let the Notes Ring)-----------------------------------
G	---00~-00~-00~--00~-00~-00~--00~-00~-00~-00~-0000~--000---
C	---00~-00~-00~--00~-00~-00~--00~-00~-00~-00~-0000~--000---
             **  **  **   **  **  **   **  **  **  **  ****   ***

Legend:
~	Let Note Ring
*	Palm Mute
x	Dead Note
b	Bend Note
db	Dive Bomb
p	Pull-Off

END
Tap to rate this tab
 
# A B C D E F G H I J K L M N O P Q R S T U V W X Y Z