Song name
# A B C D E F G H I J K L M N O P Q R S T U V W X Y Z

Asking Alexandria - Someone Somewhere Acoustic tab

Guitar 1
Intro
D -------------------------------------------------------------------------------------------|
A -------------------------------------------------------------------------------------------|
F -------------------------------------------------------------------------------------------|
C -------------------------------------------------------------------------------------------|
G --5-5555555-55555555-558-8888888-8888888-8888-3-3333333-33333333-330-0000000-00000000000---|
C --5-5555555-55555555-558-8888888-8888888-8888-3-3333333-33333333-330-0000000-00000000000---|

Verse
D --------------------------------------------------------------------|
A --------------------------------------------------------------------|
F --------------------------------------------------------------------|
C --------------------------------------------------------------------|
G -------5---7---8-----5---7---8-----5---7---8---------7----10-8-7----|
C ---555---5---5---555---5---5---888---8---8---888---8---8------------|
                                       
D -------------------------------------------------------------------|
A -------------------------------------------------------------------|
F -------------------------------------------------------------------|
C ---------------3-------------3-------------------8-7-5-7-5---------|
G -------3---7-------------7-------7-----5---7---8-----------8-7-5---|
C ---333---3---3---333---3---3---3---000---0---0---------------------|

D -------------------------------------------------------------------------------------------|
A -------------------------------------------------------------------------------------------|
F -------------------------------------------------------------------------------------------|
C -------------------------------------------------------------------------------------------|
G --5-5555555-55555555-558-8888888-8888888-8888-3-3333333-33333333-330-0000000-00000000000---|
C --5-5555555-55555555-558-8888888-8888888-8888-3-3333333-33333333-330-0000000-00000000000---|

Chorus
D ------------------------------|
A ------------------------------|
F ------------------------------|
C -8------10------12-----10-----| All x16
G -8------10------12-----10-----|
C -8------10------12-----10-----|

Breakdown
D -----------------------------------------------------------------------------------------|
A -----------------------------------------------------------------------------------------|
F -----------------------------------------------------------------------------------------|
C -----------------------------------------------------------------------------------------| 
G -7h8p7--3-5--000-000-0000-7h8p7--3-5-00-000-0000-7h8p7--3-5-000-000-0000-5-5555-8-8888---|
C -------------000-000-0000------------00-000-0000------------000-000-0000-5-5555-8-8888---|

D ------------|
A ------------|
F ------------|
C -12---------| 
G -12(x16)----|
C -12---------|
           p.m.
Outro
D --------------------------|
A --------------------------|
F --------------------------| x2
C --------------------------| 
G -7h8p7--3-5--000-000-0000-|
C -------------000-000-0000-|



Guitar 2
Intro
D ------------------------------|
A ------------------------------|
F ------------------------------|
C -8------10------12-----10-----| All x16
G -8------10------12-----10-----|
C -8------10------12-----10-----|

Verse 
D --------------------------------------------------------------------|   
A --------------------------------------------------------------------|
F --------------------------------------------------------------------|
C --------------------------------------------------------------------|
G -------5---7---8-----5---7---8-----5---7---8---------7----10-8-7----|
C ---555---5---5---555---5---5---888---8---8---888---8---8------------|
                                       					
D --------------------------------------------------------------------|
A --------------------------------------------------------------------|
F --------------------------------------------------------------------|
C ---------------3-------------3-------------------8-7-5-7-5----------|
G -------3---7-------------7-------7-----5---7---8-----------8-7-5----|
C ---333---3---3---333---3---3---3---000---0---0----------------------|

D --------------------------------------------------------------------|
A --------------------------------------------------------------------|
F --------------------------------------------------------------------|
C --------------------------------------------------------------------|
G -------5---7---8-----5---7---8-----5---7---8---------7----10-8-7----|
C ---555---5---5---555---5---5---888---8---8---888---8---8------------|
                                       
D -------------------------------------------------------------------|
A -------------------------------------------------------------------|
F -------------------------------------------------------------------|
C ---------------3-------------3-------------------8-7-5-7-5---------|
G -------3---7-------------7-------7-----5---7---8-----------8-7-5---|
C ---333---3---3---333---3---3---3---000---0---0---------------------|


Chorus
D ----------------------------------------------|
A ----------------------------------------------|
F ----------------------------------------------|
C ----------------------------------------------|
G --5-5555555-55555555-558-8888888-8888888-8888-|
C --5-5555555-55555555-558-8888888-8888888-8888-|

Cont.
D ------------------------------------------------------------------|
A ------------------------------------------------------------------|
F ------------------------------------------------------------------|
C ------------------------------------------------------------------|
G -3-3333333-33333333-33-10-10101010101010-1010101010101010101010---|
C -3-3333333-33333333-33-10-10101010101010-1010101010101010101010---| (10 not 1-0)

Repeat. 

Verse 2 
D --------------------------------------------------------------------|
A --------------------------------------------------------------------|
F --------------------------------------------------------------------|
C --------------------------------------------------------------------|
G -------5---7---8-----5---7---8-----5---7---8---------7----10-8-7----|
C ---555---5---5---555---5---5---888---8---8---888---8---8------------|
                                       
D -------------------------------------------------------------------|
A -------------------------------------------------------------------|
F -------------------------------------------------------------------|
C ---------------3-------------3-------------------8-7-5-7-5---------|
G -------3---7-------------7-------7-----5---7---8-----------8-7-5---|
C ---333---3---3---333---3---3---3---000---0---0---------------------|

D -------------------------------------------------------------------------------------------|
A -------------------------------------------------------------------------------------------|
F -------------------------------------------------------------------------------------------|
C -------------------------------------------------------------------------------------------|
G --5-5555555-55555555-558-8888888-8888888-8888-3-3333333-33333333-330-0000000-00000000000---|
C --5-5555555-55555555-558-8888888-8888888-8888-3-3333333-33333333-330-0000000-00000000000---|

Breakdown
D -----------------------------------------------------------------------------------------|
A -----------------------------------------------------------------------------------------|
F -----------------------------------------------------------------------------------------|
C -----------------------------------------------------------------------------------------| 
G -7h8p7--3-5--000-000-0000-7h8p7--3-5-00-000-0000-7h8p7--3-5-000-000-0000-5-5555-8-8888---|
C -------------000-000-0000------------00-000-0000------------000-000-0000-5-5555-8-8888---|



D ------------|
A ------------|
F ------------|
C -12---------| 
G -12(x16)----|
C -12---------|
           p.m.
Outro
D --------------------------|
A --------------------------|
F --------------------------| x2
C --------------------------| 
G -7h8p7--3-5--000-000-0000-|
C -------------000-000-0000-|
Tap to rate this tab
# A B C D E F G H I J K L M N O P Q R S T U V W X Y Z