Song name
# A B C D E F G H I J K L M N O P Q R S T U V W X Y Z

Asking Alexandria - Dear Insanity tab

Artist: Asking Alexandria                              Tabbed by: Josey Stines
Song:   Dear Insanity
Album:  Reckless and Relentless
Year:   2011
Tuning: Drop c
______________________________________________________________________________
0:00
D ----------------------------------------|
A ----------------------------------------|
F ----------------------------------------|
C ----------------------------------------| x2
G ---5--(x8)--------------------7--(x8)---|
C ------------8--(x8)--5--(x8)------------|

0:10
D ----------------------------------------------------------------------------|
A ----------------------------------------------------------------------------|
F ---7--------9--------10-------12-------7--------9--------10-------9---------|
C ---x--(x8)--x--(x8)--x--(x8)--x--(x8)--x--(x8)--x--(x8)--x--(x8)--x--(x8)---|
G ---5--------7--------8--------10-------5--------7--------8--------7---------|
C ----------------------------------------------------------------------------|

0:19
D --------------|
A --------------|
F --------------|
C --------------|
G --------------|
C ---8--(x16)---|

0:22
D -----------------------------------------------------------------------|
A -----------------------------------------------------------------------|
F -----------------------------------------------------------------------|
C -----------------------------------------------------------10-10-8-8---| x2
G ---5-----5---5---5-----5---5---5---5-----5---5---5---------------------|
C ---0-0-0-0-0-0-0-0-0-0-0-0-0-0-0-0-0-0-0-0-0-0-0-0-8-8-7-7-------------|
        * *   *   *   * *   *   *   *   * *   *   *
0:32
D -----------------------------------------------------------------------|
A -----------------------------------------------------------------------|
F -----------------------------------------------------------------------|
C -----------------------------------------------------------10-10-8-8---| x2
G ---5-----5---5---5-----------------5-----5---5---5---------------------|
C ---0-0-0-0-0-0-0-0-0-0-000-000-000-0-0-0-0-0-0-0-0-8-8-7-7-------------|
        * *   *   *   * * *** *** ***   * *   *   *
0:41
D ----------------------------------------|
A ----------------------------------------|
F ---10-------9---------------------------|
C ---x--(x32)-x--(x16)--------------------| x2
G ---8--------7-----------------7--(x8)---|
C ----------------------8--(x8)-----------|

1:00
D --------|
A --------|
F --------|
C --------|
G --------|
C ---0~---|

1:12
D ---10--(x16)--9--(x16)--6--(x16)--10--(x8)--9--(x24)---|
A -------------------------------------------------------|
F -------------------------------------------------------|
C -------------------------------------------------------|
G -------------------------------------------------------|
C -------------------------------------------------------|

1:24
D ----------------------------------------|
A ----------------------------------------|
F ---10-------9---------------------------|
C ---x--(x32)-x--(x16)--------------------| x2
G ---8--------7-----------------7--(x8)---|
C ----------------------8--(x8)-----------|

1:43
D -----------------------------------------------------------|
A -----------------------------------------------------------|
F -----------------------------------------------------------|
C ------------------(Let the notes ring)---------------------|
G ---0-0-0~-0-0~-0-0~-000~-0-0~-0-0-0~-0-0~-0-0~-000~-000~---|
C ---0-0-0~-0-0~-0-0~-000~-0-0~-0-0-0~-0-0~-0-0~-000~-000~---|
      * * *  * *  * *  ***  * *  * * *  * *  * *  ***  ***
1:48
D -----------------------------------------------------------|
A -----------------------------------------------------------|
F -----------------------------------------------------------|
C -------------------(Let the notes ring)--------------------|
G ---0-0-0~-0-0~-0-0~-000~-0-0~-0-0-0~-0-0~-0-0~-000~-0-0~---|
C ---0-0-0~-0-0~-0-0~-000~-0-0~-0-0-0~-0-0~-0-0~-000~-0-0~---|
      * * *  * *  * *  ***  * *  * * *  * *  * *  ***  * *
1:53
D --------------------------------------------------------|
A --------------------------------------------------------|
F --------------------------------------------------------|
C --------------------------------------------------------|
G ---0-0-0--0-0--0-0--000-0-0--0-0-0--0-0--0-0--000-000---|
C ---0-0-0--0-0--0-0--000-0-0--0-0-0--0-0--0-0--000-000---|
      * * *  * *  * *  *** * *  * * *  * *  * *  *** ***
1:58
D --------------------------------------------------------|
A --------------------------------------------------------|
F --------------------------------------------------------|
C --------------------------------------------------------|
G ---0-0-0--0-0--0-0--000-0-0--0-0-0--0-0--0-0--000-0-0---|
C ---0-0-0--0-0--0-0--000-0-0--0-0-0--0-0--0-0--000-0-0---|
      * * *  * *  * *  *** * *  * * *  * *  * *  *** * *
2:05
D -----------------------------------------|
A -----------------------------------------|
F ---10--------7--------6--------9---------|
C ---x--(x16)--x--(x8)--x--(x4)--x--(x4)---| x2
G ---8---------5--------4--------7---------|
C -----------------------------------------|

2:17
D ------------------------------------------------------------|
A ------------------------------------------------------------|
F ---10--------9--------10--------12-------15-------14--------|
C ---x--(x24)--x--(x8)--x--(x16)--x--(x8)--x--(x4)--x--(x4)---| x2
G ---8---------7--------8---------10-------13-------12--------|
C ------------------------------------------------------------|

2:39
D --------------------------------------------------------|
A --------------------------------------------------------|
F --------------------------------------------------------|
C --------------------------------------------------------|
G --------------------------------------------------------|
C ---000000000-0-0--0000000-0-0--000000000-0-0--0000000---|
      ********* * *  ******* * *  ********* * *  *******
2:45
D --------------------------------------------------------|
A --------------------------------------------------------|
F --------------------------------------------------------|
C --------------------------------------------------------| x2
G ---000000000-0-0--0000000-0-0--000000000-0-0--0000000---|
C ---000000000-0-0--0000000-0-0--000000000-0-0--0000000---|
      ********* * *  ******* * *  ********* * *  *******
2:56
D ------------------------------------------------------------|
A ------------------------------------------------------------|
F ------------------------------------------------------------|
C -----------------(Let the notes ring)-----------------------|
G ---000000000-0-0~--0000000-0-0~--000000000-0-0~--0000000~---|
C ---000000000-0-0~--0000000-0-0~--000000000-0-0~--0000000~---|
      ********* * *   ******* * *   ********* * *   *******
3:01
D ------------------------------------------------------------|
A ------------------------------------------------------------|
F ------------------------------------------------------------|
C -----------------(Let the notes ring)-----------------------|
G ---000000000-0-0~--0000000-0-0~--000000000-0-0~--0000000~---|
C ---111111111-1-1~--1111111-1-1~--111111111-1-1~--1111110~---|
      ********* * *   ******* * *   ********* * *   *******
Legend:
*       Palm Mute
~       Let Note Ring
x       Dead Note
END
Tap to rate this tab
# A B C D E F G H I J K L M N O P Q R S T U V W X Y Z