Song name
# A B C D E F G H I J K L M N O P Q R S T U V W X Y Z

Asking Alexandria - Someone Somewhere Acoustic tab

Someone, Somewhere. 
Asking Alexandria.
Acoustic Tab.
Tabbed by Jack Sazama.
Drop C tuning.

My first tab so there may be mistakes but this is how I play the song.

Enjoy

Any questions or comments e-mail me at j.saz.va@gmail.com

 Intro (x2)
 D|----------------------------------------------------------------------------|
 A|----------------------------------------------------------------------------|
 F|----------------------------------------------------------------------------|
 C|---5~--5~5~5~5~5~--5~5~5~5~5~--5~5~8~--8~8~8~8~8~--8~8~8~8~8~--8~8~3~-------|
 G|---5~--5~5~5~5~5~--5~5~5~5~5~--5~5~8~--8~8~8~8~8~--8~8~8~8~8~--8~8~3~-------|
 C|---5~--5~5~5~5~5~--5~5~5~5~5~--5~5~8~--8~8~8~8~8~--8~8~8~8~8~--8~8~3~-------|
 
 D|----------------------------------------------------------------------------|
 A|---------------------------------------------------------------------------o|
 F|----------------------------------------------------------------------------|
 C|---3~3~3~3~3~--3~3~3~3~3~--3~3~0~--0~0~0~0~0~--0~0~0~0~0~--0~0~-------------|
 G|---3~3~3~3~3~--3~3~3~3~3~--3~3~0~--0~0~0~0~0~--0~0~0~0~0~--0~0~------------o|
 C|---3~3~3~3~3~--3~3~3~3~3~--3~3~0~--0~0~0~0~0~--0~0~0~0~0~--0~0~-------------|

 Verse (x2)
 D|----------------------------------------------------------------------------|
 A|----------------------------------------------------------------------------|
 F|----------------------------------------------------------------------------|
 C|----------------------------------------------------------------------------|
 G|---------5---7---8-------5---7---8-------5---7---8-------5---7-10-8---------|
 C|---5-5-5---5---5---5-5-5---5---5---8-8-8---8---8---8-8-8---8----------------|
 
 D|----------------------------------------------------------------------------|
 A|---------------------------------------------------------------------------o|
 F|----------------------------------------------------------------------------|
 C|-----------------3---------------3-----------------8-7-5-7-5----------------|
 G|---------3---7-----------3---7-----------5---7---8-----------8-7-5---------o|
 C|---3-3-3---3---3---3-3-3---3---3---0-0-0---0---0----------------------------|

 Chorus (x2)
 D|-------------|--------------------------------------------------------------|
 A|-------------|o------------------------------------------------------------o|
 F|---x-x-x-x---|---3~-------5~-------7~-------5~------------------------------|
 C|---x-x-x-x---|---3~-------5~-------7~-------5~------------------------------|
 G|---x-x-x-x---|o--1~(x16)--3~(x16)--5~(x16)--3~(x16)------------------------o|
 C|---x-x-x-x---|---x--------x--------x--------x-------------------------------|

 D|---------------------|
 A|---------------------|
 F|---3~----------------|
 C|---3~----------------|
 G|---1~----------------|
 C|---------------------|

 Verse
 D|----------------------------------------------------------------------------|
 A|----------------------------------------------------------------------------|
 F|----------------------------------------------------------------------------|
 C|----------------------------------------------------------------------------|
 G|---------5---7---8-------5---7---8-------5---7---8-------5---7-10-8---------|
 C|---5-5-5---5---5---5-5-5---5---5---8-8-8---8---8---8-8-8---8----------------|
 
 D|----------------------------------------------------------------------------|
 A|----------------------------------------------------------------------------|
 F|----------------------------------------------------------------------------|
 C|-----------------3---------------3-----------------8-7-5-7-5----------------|
 G|---------3---7-----------3---7-----------5---7---8-----------8-7-5----------|
 C|---3-3-3---3---3---3-3-3---3---3---0-0-0---0---0----------------------------|

 (figure the strum rhythm out)
 D|----------------------------------------------------------------------------|
 A|----------------------------------------------------------------------------|
 F|----------------------------------------------------------------------------|
 C|---5---5-5-5-5-5---5-5-5-5-5---5-5-8---8-8-8-8-8---8-8-8-8-8---8-8-3--------|
 G|---5---5-5-5-5-5---5-5-5-5-5---5-5-8---8-8-8-8-8---8-8-8-8-8---8-8-3--------|
 C|---5---5-5-5-5-5---5-5-5-5-5---5-5-8---8-8-8-8-8---8-8-8-8-8---8-8-3--------|
      *   * * * * *   * * * * *   * * *   * * * * *   * * * * *   * * *
 D|----------------------------------------------------------------------------|
 A|----------------------------------------------------------------------------|
 F|----------------------------------------------------------------------------|
 C|---3-3-3-3-3---3-3-3-3-3---3-3-0---0-0-0-0-0---0-0-0-0-0---0-0--------------|
 G|---3-3-3-3-3---3-3-3-3-3---3-3-0---0-0-0-0-0---0-0-0-0-0---0-0--------------|
 C|---3-3-3-3-3---3-3-3-3-3---3-3-0---0-0-0-0-0---0-0-0-0-0---0-0--------------|
      * * * * *   * * * * *   * * *   * * * * *   * * * * *   * *
 Chorus (x2)
 D|----------------------------------------------------------------------------|
 A|---------------------------------------------------------------------------o|
 F|---3~-------5~-------7~-------5~--------------------------------------------|
 C|---3~-------5~-------7~-------5~--------------------------------------------|
 G|---1~(x16)--3~(x16)--5~(x16)--3~(x16)--------------------------------------o|
 C|---x--------x--------x--------x---------------------------------------------|
 
 Breakdown (x2)
 D|----------------------------------------------------------------------------|
 A|o---------------------------------------------------------------------------|
 F|----------------------------------------------------------------------------|
 C|---------------0-0-0---0-0-0---0-0-0-0---------------0-0---0-0-0---0-0-0-0--|
 G|o--7h8p7-3-5---0-0-0---0-0-0---0-0-0-0---7h8p7-3-5---0-0---0-0-0---0-0-0-0--|
 C|---------------0-0-0---0-0-0---0-0-0-0---------------0-0---0-0-0---0-0-0-0--|
                  * * *   * * *   * * * *               * *   * * *   * * * *
 D|--------------------------------------------------------|-------------------|
 A|-------------------------------------------------------o|-------------------|
 F|--------------------------------------------------------|-------------------|
 C|---------------0-0-0---0-0-0---0-0-0-0---5------8-------|---12~-------------|
 G|---7h8p7-3-5---0-0-0---0-0-0---0-0-0-0---5------8------o|---12~-------------|
 C|---------------0-0-0---0-0-0---0-0-0-0---5(x6)--8(x6)---|---12~-------------|
                  * * *   * * *   * * * *
 Chorus (x2)
 D|----------------------------------------------------------------------------|
 A|---------------------------------------------------------------------------o|
 F|---3~-------5~-------7~-------5~--------------------------------------------|
 C|---3~-------5~-------7~-------5~--------------------------------------------|
 G|---1~(x16)--3~(x16)--5~(x16)--3~(x16)--------------------------------------o|
 C|---x--------x--------x--------x---------------------------------------------|

 Chorus (again) (x2)
 D|----------------------------------------------------------------------------|
 A|---------------------------------------------------------------------------o|
 F|---3~-------5~-------7~-------5~--------------------------------------------|
 C|---3~-------5~-------7~-------5~--------------------------------------------|
 G|---1~(x16)--3~(x16)--5~(x16)--3~(x16)--------------------------------------o|
 C|---x--------x--------x--------x---------------------------------------------|
 
 Outro
 D|----------------------------------------------------------------------------|
 A|----------------------------------------------------------------------------|
 F|-----------------------------------------------------------------------7~~~-|
 C|---------------0-0-0---0-0-0---0-0-0-0---------------0-0---0-0-0---0-0-7~~~-|
 G|---7h8p7-3-5---0-0-0---0-0-0---0-0-0-0---7h8p7-3-5---0-0---0-0-0---0-0-5~~~-|
 C|---------------0-0-0---0-0-0---0-0-0-0---------------0-0---0-0-0---0-0-0~~~-|
                  * * *   * * *   * * * *               * *   * * *   * * 

Compiled with TabPlayer :: http://www.simoneperandini.com/tabplayer/
Tap to rate this tab
 
# A B C D E F G H I J K L M N O P Q R S T U V W X Y Z