Song name
# A B C D E F G H I J K L M N O P Q R S T U V W X Y Z

Asking Alexandria - Someone Somewhere Acoustic tab

Song: Someone Somewhere Acoustic
Artist: Asking Alexandria
Album: *unreleased*
Tuning: Drop D

Tap the pick guard 4 times to time in

The strumming pattern is easy to learn so I'm only putting the notes.
Intro x3
|--------------|
|--------------|
|--------------|
|--5--8--3--0--|
|--5--8--3--0--|
|--5--8--3--0--|

Verse x2
|--------------------------------------------------------------------|
|--------------------------------------------------------------------|
|--------------------------------------------------------------------|
|--------------------------------------------------------------------|
|-------5---7---8-----5---7---8-----5---7---8---------7----10-8-7----|
|---555---5---5---555---5---5---888---8---8---888---8---8------------|
    ...   .   .   ...   .   .   ...   .   .   ...   .   .

|--------------------------------------------------------------------|
|--------------------------------------------------------------------|
|--------------------------------------------------------------------|
|---------------3-------------3-------------------8-7-5-7-5----------|
|-------3---7-------------7-------7-----5---7---8-----------8-7-5----|
|---333---3---3---333---3---3---3---000---0---0----------------------|
    ...   .   .   ...   .   .   .   ...   .   .

Tap pick guard 4 times again.

Chorus x2
The strumming pattern is pretty much the same thing twice but on the second time end on 
the 8th fret.
|--------------------------------|------|
|---------------x2---------------|------|
|--------------------------------|------|
|--8--10--12--10--8--10--12--10--|--8~--|
|--8--10--12--10--8--10--12--10--|--8~--|
|--8--10--12--10--8--10--12--10--|--8~--|

Verse once then play the intro again.
|--------------------------------------------------------------------|
|--------------------------------------------------------------------|
|--------------------------------------------------------------------|
|--------------------------------------------------------------------|
|-------5---7---8-----5---7---8-----5---7---8---------7----10-8-7----|
|---555---5---5---555---5---5---888---8---8---888---8---8------------|
    ...   .   .   ...   .   .   ...   .   .   ...   .   .

|--------------------------------------------------------------------|
|--------------------------------------------------------------------|
|--------------------------------------------------------------------|
|---------------3-------------3-------------------8-7-5-7-5----------|
|-------3---7-------------7-------7-----5---7---8-----------8-7-5----|
|---333---3---3---333---3---3---3---000---0---0----------------------|
    ...   .   .   ...   .   .   .   ...   .   .

Chorus x2
The strumming pattern is pretty much the same thing twice but on the second time end on 
the 8th fret.
|--------------------------------|
|---------------x2---------------|
|--------------------------------|
|--8--10--12--10--8--10--12--10--|
|--8--10--12--10--8--10--12--10--|
|--8--10--12--10--8--10--12--10--|

This is in there somewhere and palm muted notes in there as well but I'm too lazy to tab 
it out because it's all really easy.
|---------------|
|---------------|
|---------------|
|--5h7p5--------|
|---------7/8---|
|---------------|

The end of this part is. Play 12 lightly though.
|------------|
|------------|
|------------|
|--5--8--12--|
|--5--8--12--|
|--5--8--12--|

Chorus x2
The strumming pattern is pretty much the same thing twice but on the second time end on 
the 8th fret.
|--------------------------------|
|---------------x2---------------|
|--------------------------------|
|--8--10--12--10--8--10--12--10--|
|--8--10--12--10--8--10--12--10--|
|--8--10--12--10--8--10--12--10--|

This part comes in again
|---------------|
|---------------|
|---------------|
|--5h7p5--------|
|---------7/8---|
|---------------|
Tap to rate this tab
# A B C D E F G H I J K L M N O P Q R S T U V W X Y Z