Song name
# A B C D E F G H I J K L M N O P Q R S T U V W X Y Z

Asking Alexandria - Poison tab

ASKING ALEXANDRIA
POISON
DROP B
Gtr1 - Ben Bruce
Gtr2 - Cameron Liddell


Intro mayte
Gtr1
C#|--------------------------------------------------------------|      --------
G#|--------------------------------------------------------------|      ---------
E |--------------------------------------------------------------|      --10~-----
B |---------------------------------------------------------5-2--| then --x--------
F#|-00-00-00000000-00-0--------------00-00-00000000-00-0---------|      --8~--------
B |-00-00-00000000-00-0-5b(7)r-3-0---00-00-00000000-00-0-5-2-----|      -------------
Gtr2** ** ******** ** *              ** ** ******** ** *                8 strums each-
C#|--------------------------------------------------------------|      -------------
G#|--------------------------------------------------------------|      ------------
E |--------------------------------------------------------------|      -14~-------
B |---------------------------------------------------------8-5--| then -x--------
F#|-00-00-00000000-00-0--------------00-00-00000000-00-0---------|      -12~-----
B |-00-00-00000000-00-0-8b(10)r-7-0--00-00-00000000-00-0-8-5-----|      --------
    ** ** ******** ** *              ** ** ******** ** *


Verse 0:11 
Gtr1 & 2                     x2                                 x2
C#|----------------------------|----------------------------------|
G#|----------------------------|----------------------------------|
E |----------------------------|----------------------------------|
B |----------------------------|----------------------------------|(x2)
F#|-00000--0000000-0-0--0-00-0-|-00000~-0000000~-0~0~-0~----------|
B |-00000--0000000-0-0--0-00-0-|-00000~-0000001~-1~1~-1~-0-O-0-O--|
    *****  ******* * *  * ** *                           * # * #
# = Pluck out hard with the pick nearlly parrallel to the body
    (Flat like the neck) to get that Wah-ish, open sound.



Chorus 0:38
Gtr1                       x1                                                         x2
C#|--------------------------|----------------------------------------------------------|
G#|--------------------------|----------------------------------------------------------|
E |-7~-------3~------2~------|-7777-7777-77777777-7777-77773333-3333-33332222-2222-2222-|
B |-x-(x32)--x-(x16)-x-(x16)-|-xxxx-xxxx-xxxxxxxx-xxxx-xxxxxxxx-xxxx-xxxxxxxx-xxxx-xxxx-|
F#|-5~-------1~------0~------|-5555-5555-55555555-5555-55551111-1111-11110000-0000-0000-|
B |--------------------------|----------------------------------------------------------|
                           Gtr2 (not sure, but i think..)                             x2
                           C#|-----------13~--------------------------------------------|
                           G#|-15~---17~----15~---18~-15~-------------------------------|
                           E |----------------------------------------------------------|
                           B |----------------------------(14-15-14-17-14)--------------|
                           F#|-------------------------------^8 times^------------------|
                           B |----------------------------------------------------------|



Pre-Verse 2 1:16
C#|-------------------|
G#|-------------------|
E |-------------------|
B |-------------------|
F#|-000-0-00-00-00000-|
B |-000-0-00-00-00000-|...
||  *** * ** ** *****
Verse 2 1:19
Gtr1 (four endings)    1st ending        2nd ending      3rd ending         4th ending
C#|-------------------|-17h18p17--------|---------------|-17h18p17---20/22-|---------------|
G#|-------------------|---------18-15---|---------------|---------18-------|---------------|
E |-------------------|-----------------|---------------|------------------|---------------|
B |-------------------|--------------18-|------=--------|------------------|------=--------|
F#|-000-0-00-00-00000-|-----------------|---------------|------------------|---------------|
B |-000-0-00-00-00000-|-----------------|---------------|------------------|---------------|
Gtr2*** * ** ** *****
C#|-------------------|-12h13p12--------|---------------|-12h13p12---15/17-|---------------|
G#|-------------------|---------13-10---|---------------|---------13-------|---------------|
E |-------------------|-----------------|---------------|------------------|---------------|
B |-------------------|--------------13-|------=--------|------------------|------=--------|
F#|-000-0-00-00-00000-|-----------------|---------------|------------------|---------------|
B |-000-0-00-00-00000-|-----------------|---------------|------------------|---------------|
    *** * ** ** *****
^^If you don't get this; play the palm mutes first then the first ending. Then replay the 
palm mutes and play the 2nd ending (which is nothing) So on and so forth.
1:31
C#|---------------------------------------------------------------------------------------------F--|
G#|---------------------------------------------------------------------------------------------A--|
E |---------------------------------------------------------------------------------------------S--|
B |--------------------------------------------------------------------------------------------/T\-|
F#|-000-0-00-00-00000~~--000-0-00-00-00000----000-0-00-00-00000~~--000-0-00-00-000-0~0~0~0~0~0~000-|
B |-000-0-00-00-00000~~--000-0-00-00-00000----000-0-00-00-00000~~--000-0-00-00-000-0~0~0~1~1~1~000-|




"I Wanna Watch The Whole World.." 1:44
Gtr1 (more spaced out but i couldn't fit it in otherwise)
C#|-----------------------------------------------------------------------------------------------|
G#|---10---------10--13------10-----------------------13---------13--15------13-------------------|
E |-----12-10------12--10------12-10------10-12---------15-14------15--14------15-14------14-15---|
B |-12---------12----------12---------12-------10---15---------15----------15---------15-------15-|
F#|-----------------------------------------------------------------------------------------------|
B |-----------------------------------------------------------------------------------------------|
Gtr2
C#|-----------------------------------------------|
G#|---10---------10--13------10-------------------|
E |-----12-10------12--10------12-10------10-12---|
B |-12---------12----------12---------12-------10-| x2
F#|-----------------------------------------------|
B |-----------------------------------------------|


            Play Chorus 2:11 - 2:49

Outro
C#|-------------------------------------------------|
G#|-------------------------------------------------|
E |-------------------------------------------------|
B |-------------------------------------------------|
F#|-000-0-00-00-00000------000-0-00-00-----0~-------|
B |-000-0-00-00-00000------000-0-00-00-00000~-------|
    *** * ** ** *****      *** * ** **          ^ turn volume down/off

Done. Cheers, rate and comment
Tap to rate this tab
 
# A B C D E F G H I J K L M N O P Q R S T U V W X Y Z