Song name
# A B C D E F G H I J K L M N O P Q R S T U V W X Y Z

Asking Alexandria - White Line Fever tab

White Line Fever
Asking Alexandria
From Death To Destiny

Tabbed by Jack Sazama

Tuning-Drop B (B, F#, B, E, G#, C#)

 Intro
C#|------------------------------------------------------------------|
G#|------------------------------------------------------------------|
 E|------------------------------------------------------------------|
 B|----12~-10-12-14-14/15~14\10-10~10-12-12/15~14\10-10~10-7-10/12-12|
F#|----0-------------------------------------------------------------|
 B|-ps-0-------------------------------------------------------------|

-------------------------------------|
-------------------------------------|
-------------------------------------|
-14-14-14-14-15-15-15-15-17-17-17-17-|
-------------------------------------|
-------------------------------------|

C#|-----------------------------------------------------------------|
G#|-----------------------------------------------------------------|
 E|-------------15-15-15-15-17-17-17-17-19b(x16)--------------------|
 B|-19-19-19-19-------------------------------------1/--------------|
F#|-------------------------------------------------1/--------------|
 B|----------------------------------------------ps-1/--------------|

Verse
C#|--------------------------------------------------------------------|
G#|--------------------------------------------------------------------|
 E|--------------------------------------------------------------------|
 B|--------------------------------------------------------------------|
F#|--------------------------------------------------------------------|
 B|--2p0-00-1p0-0-0-00-3p0-5p0-2p0-00-1p0-0-0-00-3p0-5p0-2p0-00-1p0-0-0|

--------------------------------------|
--------------------------------------|
--------------------------------------|
--------------------------------------|
--------------------------------------|
-00-3p0-5p0-2p0-00-1p0-0-0-00-3p0-5p0-|

 Pre-chorus
C#|----------------------------------------------------------------------------|
G#|----------------------------------------------------------------------------|
 E|----------------------------------------------------------------------------|
 B|---3-3-3-0-0-0-6-6-6-0-0-0-3-3-5-5-3-3-3-0-0-0-6-6-6-0-0-0-7-8-7-5----------|
F#|---3-3-3-0-0-0-6-6-6-0-0-0-3-3-5-5-3-3-3-0-0-0-6-6-6-0-0-0-7-8-7-5----------|
 B|---3-3-3-0-0-0-6-6-6-0-0-0-3-3-5-5-3-3-3-0-0-0-6-6-6-0-0-0-7-8-7-5----------|

 Chorus
C#|----------------------------------------------------------------------------|
G#|----------------------------------------------------------------------------|
 E|----------------------------------------------------------------------------|
 B|--12-12-1212-8-8-88-3-3-33-7-7-77-12-12-1212-8-8-88-3-3-33-3~0-3-5-6-5-3-0--|
F#|--12-12-1212-8-8-88-3-3-33-7-7-77-12-12-1212-8-8-88-3-3-33-3~0-3-5-6-5-3-0--|
 B|--12-12-1212-8-8-88-3-3-33-7-7-77-12-12-1212-8-8-88-3-3-33-3~0-3-5-6-5-3-0--|

C#|----------------------------------------------------------------------------|
G#|----------------------------------------------------------------------------|
 E|----------------------------------------------------------------------------|
 B|--12-12-1212-8-8-88-3-3-33-7-7-77-12-12-1212-8-8-88-3-3-33-3~0-3-5-6-5-3-0--|
F#|--12-12-1212-8-8-88-3-3-33-7-7-77-12-12-1212-8-8-88-3-3-33-3~0-3-5-6-5-3-0--|
 B|--12-12-1212-8-8-88-3-3-33-7-7-77-12-12-1212-8-8-88-3-3-33-3~0-3-5-6-5-3-0--|

C#|----------------------------------------------------------------------------|
G#|----------------------------------------------------------------------------|
 E|----------------------------------------------------------------------------|
 B|---6-6-6-5-5-5-3-3-3-5-5-5-5-3-1-0~-----------------------------------------|
F#|---6-6-6-5-5-5-3-3-3-5-5-5-5-3-1-0~-----------------------------------------|
 B|---6-6-6-5-5-5-3-3-3-5-5-5-5-3-1-0~-----------------------------------------|

Verse
C#|--------------------------------------------------------------------|
G#|--------------------------------------------------------------------|
 E|--------------------------------------------------------------------|
 B|--------------------------------------------------------------------|
F#|--------------------------------------------------------------------|
 B|--2p0-00-1p0-0-0-00-3p0-5p0-2p0-00-1p0-0-0-00-3p0-5p0-2p0-00-1p0-0-0|

--------------------------------------|
--------------------------------------|
--------------------------------------|
--------------------------------------|
--------------------------------------|
-00-3p0-5p0-2p0-00-1p0-0-0-00-3p0-5p0-|

Pre-chorus
C#|-------------------------------------------------------------------|
G#|-------------------------------------------------------------------|
 E|----------------------------------1010101010101010-9-9-9-9-9-9-9-9-|
 B|---0~00~00~0000~00~0~00~00~0000~00~x-x-x-x-x-x-x-x-x-x-x-x-x-x-x-x-|
F#|---0~00~00~0000~00~0~00~00~0000~00~8-8-8-8-8-8-8-8-7-7-7-7-7-7-7-7-|
 B|---0~00~00~0000~00~0~00~00~0000~00~--------------------------------|

C#|---------------------------------------------------------------------------|
G#|---------------------------------------------------------------------------|
 E|----------------------------------1010101010101010-1212121212121212--------|
 B|---0~00~00~0000~00~0~00~00~0000~00~x-x-x-x-x-x-x-x-x-x-x-x-x-x-x-x--8~10~7~|
F#|---0~00~00~0000~00~0~00~00~0000~00~8-8-8-8-8-8-8-8-1010101010101010-8~10~7~|
 B|---0~00~00~0000~00~0~00~00~0000~00~---------------------------------8~10~7~|

 Chorus
C#|----------------------------------------------------------------------------|
G#|----------------------------------------------------------------------------|
 E|----------------------------------------------------------------------------|
 B|--12-12-1212-8-8-88-3-3-33-7-7-77-12-12-1212-8-8-88-3-3-33-3~0-3-5-6-5-3-0--|
F#|--12-12-1212-8-8-88-3-3-33-7-7-77-12-12-1212-8-8-88-3-3-33-3~0-3-5-6-5-3-0--|
 B|--12-12-1212-8-8-88-3-3-33-7-7-77-12-12-1212-8-8-88-3-3-33-3~0-3-5-6-5-3-0--|

C#|----------------------------------------------------------------------------|
G#|----------------------------------------------------------------------------|
 E|----------------------------------------------------------------------------|
 B|--12-12-1212-8-8-88-3-3-33-7-7-77-12-12-1212-8-8-88-3-3-33-3~0-3-5-6-5-3-0--|
F#|--12-12-1212-8-8-88-3-3-33-7-7-77-12-12-1212-8-8-88-3-3-33-3~0-3-5-6-5-3-0--|
 B|--12-12-1212-8-8-88-3-3-33-7-7-77-12-12-1212-8-8-88-3-3-33-3~0-3-5-6-5-3-0--|

C#|----------------------------------------------------------------------------|
G#|----------------------------------------------------------------------------|
 E|----------------------------------------------------------------------------|
 B|---6-6-6-5-5-5-3-3-3-5-5-5-5-3-1-0~-----------------------------------------|
F#|---6-6-6-5-5-5-3-3-3-5-5-5-5-3-1-0~-----------------------------------------|
 B|---6-6-6-5-5-5-3-3-3-5-5-5-5-3-1-0~-----------------------------------------|

 Breakdown
C#|-------------------------------------------------------------------------------|
G#|-------------------------------------------------------------------------------|
 E|--------10~-10~12~-----10~-10~9~-----10~-10~12~--------------------------------|
 B|---0-0-0-x~0-x~x~-0-0-0-x~0-x~x~0-0-0-x~0-x~-x~-8-8-8-8-8-8-8-8-7-7-7-7-7-7-7-7|
F#|---0-0-0-8~0-8~10~0-0-0-8~0-8~7~0-0-0-8~0-8~10~-8-8-8-8-8-8-8-8-7-7-7-7-7-7-7-7|
 B|---0-0-0---0------0-0-0---0-----0-0-0---0-------8-8-8-8-8-8-8-8-7-7-7-7-7-7-7-7|

C#|---------------------------------------------------------------------------------------|
G#|---------------------------------------------------------------------------------------|
 E|--------10~-10~12~-----10~-10~9~-----10~-10~12~----------------------------------------|
 B|---0-0-0-x~0-x~x~-0-0-0-x~0-x~x~0-0-0-x~0-x~-x~-8-8-8-8-8-8-8-8-10-10-10-10-10-10-10-10|
F#|---0-0-0-8~0-8~10~0-0-0-8~0-8~7~0-0-0-8~0-8~10~-8-8-8-8-8-8-8-8-10-10-10-10-10-10-10-10|
 B|---0-0-0---0------0-0-0---0-----0-0-0---0-------8-8-8-8-8-8-8-8-10-10-10-10-10-10-10-10|

 Bridge
C#|----------------------------------------------------------------------------|
G#|----------------------------------------------------------------------------|
 E|----------------------------------------------------------------------------|
 B|--12~10-12-14-14/15-14\10-10~10-12/15-12\10-10~10-7-10/12-12~---------------|
F#|---0------------------------------------------------------------------------|
 B|---0---------------------------------------------------------ps-------------|

 Chorus
C#|----------------------------------------------------------------------------|
G#|----------------------------------------------------------------------------|
 E|----------------------------------------------------------------------------|
 B|--12-12-1212-8-8-88-3-3-33-7-7-77-12-12-1212-8-8-88-3-3-33-3~0-3-5-6-5-3-0--|
F#|--12-12-1212-8-8-88-3-3-33-7-7-77-12-12-1212-8-8-88-3-3-33-3~0-3-5-6-5-3-0--|
 B|--12-12-1212-8-8-88-3-3-33-7-7-77-12-12-1212-8-8-88-3-3-33-3~0-3-5-6-5-3-0--|

C#|----------------------------------------------------------------------------|
G#|----------------------------------------------------------------------------|
 E|----------------------------------------------------------------------------|
 B|--12-12-1212-8-8-88-3-3-33-7-7-77-12-12-1212-8-8-88-3-3-33-3~0-3-5-6-5-3-0--|
F#|--12-12-1212-8-8-88-3-3-33-7-7-77-12-12-1212-8-8-88-3-3-33-3~0-3-5-6-5-3-0--|
 B|--12-12-1212-8-8-88-3-3-33-7-7-77-12-12-1212-8-8-88-3-3-33-3~0-3-5-6-5-3-0--|

C#|----------------------------------------------------------------------------|
G#|----------------------------------------------------------------------------|
 E|----------------------------------------------------------------------------|
 B|---6-6-6-5-5-5-3-3-3-5-5-5-5-3-1-0~-0---------------------------------------|
F#|---6-6-6-5-5-5-3-3-3-5-5-5-5-3-1-0~-0---------------------------------------|
 B|---6-6-6-5-5-5-3-3-3-5-5-5-5-3-1-0~-0---------------------------------------|

Used Tab Symbols
_____________________
 h  = Hammer On
 p  = Pull Off
 ~  = Sustain
 v  = Vibrato
 w  = Wide Vibrato
 b  = Bend Up
 hb = Bend Halfway
 /  = Slide Up
 \  = Slide Down
 *  = Trill
 x  = Muted Note
 H  = Harmonic
 t  = Right Hand Tap
 :  = Let Ring
ps  = Pick Slide
_____________________


Compiled with TabPlayer :: http://www.simoneperandini.com/tabplayer/
Tap to rate this tab
# A B C D E F G H I J K L M N O P Q R S T U V W X Y Z