Song name
# A B C D E F G H I J K L M N O P Q R S T U V W X Y Z

Asking Alexandria - Not The American Average tab

-------------------------------------------------------------------------------
 Not The American Average- Asking Alexandria
-------------------------------------------------------------------------------
Tabbed by: Samantha Brown
E-mail: brownsamantha.96@gmail.com

Tuning: Drop D

This is a bit of an easy way to play this song. Sounds very close! Drop D tuning, have fun!(:

Intro:
e:
B:
G:
D:0         (Strum however)
A:0
E:0

Verse:
e:----------------------------------|
B:----------------------------------|
G:----------------------------------|
D:--5p0--------5p0-0-0-0------------|
A:--5p0--------5p0-0-0-0------------|         X2
E:--5p0--------5p0-0-0-0------------|

e:------------------------------------------|
B:------------------------------------------|
G:------------------------------------------|
D:-5p0--------5p0-0-0-0---8p0---------------|
A:--5p0-------5p0-0-0-0----------8p0--------|
E:--5p0-------5p0-0-0-0-----------------8po-|

Bridge/Mini-buildup to chorus
-Palm Mute As You Strum-
e: -------------------------------------|
B:--------------------------------------|
G:--------------------------------------|
D:0-0-0--0--0--0-0-0--0--0--------------|
A:0-0-0--0--0--0-0-0--0--0--------------|
E:0-0-0--0--0--0-0-0--0--0--------------|

Chorus: (STRUMMING PATTERN D DUDU)
e:---------------------------------------------------------------------|
B:---------------------------------------------------------------------|
G:---------------------------------------------------------------------|
D:0-0-0-0-0-2-2-2-2-2-3-3-3-3-3-5-5-5-5-5------------------------------|        x3
A:0-0-0-0-0-2-2-2-2-2-3-3-3-3-3-5-5-5-5-5------------------------------|
E:0-0-0-0-0-2-2-2-2-2-3-3-3-3-3-5-5-5-5-5------------------------------|

e:--------------------------------------------------------------------|
B:--------------------------------------------------------------------|
G:--------------------------------------------------------------------|
D:0-0-0-0-0-2-2-2-2-2-3-3-3-3-3-2-2-2-2-2-----------------------------|
A:0-0-0-0-0-2-2-2-2-2-3-3-3-3-3-2-2-2-2-2-----------------------------|
E:0-0-0-0-0-2-2-2-2-2-3-3-3-3-3-2-2-2-2-2-----------------------------|

SOLO: (ALSO 2ND VERSE)
e:-------------------------------------------------------------------|
B:-------------------------------------------------------------------|
G:-------------------------------------------------------------------|
D:-------3-2-3-5-3-2h3p2---3-2h3p2---3-5-3---------------------------|
A:--------------------------------------1----------------0-----------|
E:-0-0---------------------------------------------------------------|
(Continue until end of 2nd Verse)


Not sure where it goes from there... hope this helped <3
Tap to rate this tab
 
# A B C D E F G H I J K L M N O P Q R S T U V W X Y Z