Song name
# A B C D E F G H I J K L M N O P Q R S T U V W X Y Z

Asobi Seksu - Strawberries tab

-------------------------------------------------------------------------------
                             STRAWBERRIES - Asobi Sekusu
-------------------------------------------------------------------------------
Tabbed 3/2/2013

I tried to get most of the tab here.  You might have to mix the guitar leads with 
effects and feedback into the song, but this should be it.

Tuning:EADGBe
Intro (if you can't pick it, try fingerpicking)
          x4            x4
e|--2-2-2-|-------------|-----|
B|---2-2--|----0-0-0----|-----|
G|-3------|-3b4~--------|--4~-|
D|--------|-------------|-----|
A|--------|-------------|-----|
E|--------|-------------|-----|


Bridge (1:21)
     *   *   *   *    *
e|------------------|---------------------|
B|-----------14--11-|-(12)----------------|
G|---11--13---------|---------------------|
D|------------------|-9~------------------|
A|------------------|---------------------|
E|------------------|---------------------|

I can't discern between the multiple guitars for this part.  Improvise over F# 
Mixolydian, mainly using the first 3 strings with a lot of reverb.
e|--11--12--14--|
B|--11--12--14--|
G|--11--13------|
D|--11--13--14--|
A|--11--13--14--|
E|--11--12--14--|

This is a riff used on some phrases right before transitioning.
     *   *   *   *   *
e|---------------------------|
B|-----------17--16----------|
G|---11--12---------16~------|
D|---------------------------|
A|---------------------------|
E|---------------------------|

Ending (power chords optional)
e|---------------------------------------------------------------------------|
B|---------------------------------------------------------------------------|
G|---------------------------------------------------------------------------|
D|---------------------------------------------------------------------------|
A|---2-2-2-2-2-2-2-2-0-0-0-0-0-0-0-0-----------------------------------------|
E|-----------------------------------4-4-4-4-4-4-4-4-3-3-3-3-2-2-2-2---------|

************************************
| *   tremolo
| b   bend
| ~   hold
************************************
Tap to rate this tab
 
# A B C D E F G H I J K L M N O P Q R S T U V W X Y Z