Guitaretab - guitar tabs
Song name
# A B C D E F G H I J K L M N O P Q R S T U V W X Y Z

Asp - Mein Herz Erkennt Dich Immer tab

ASP  Mein Herz erkennt Dich immer

Tabbed by Christoph Fuerniss (c), toeffifee at yahoo dot com

If you like it, please let me know :o)

You can check it out on youtube as well: http://www.youtube.com/watch?v=g0sMbPismgE

Have fun!

---------------------------------------------------------------------

(g)=glissando

chords for the first little bass scale (0-2-4):
D     =|xx0232| (normal D)
A 4/7 =|xx2033| (like a D4 but index finger on D string on 2nd fret)
D*    =|xx4232| (normal D but little finger on D string on 4th fret)

chords for the second little bass scale (2-4-0):
Bm     =|x2x32x| (normal Bm)
A/C#   =|x4x220|
D      =|xx0x32| (normal D)


Intro

  Bm    (g)            A  (g)
e--------2------2----------0--------|
b--------35-3------3------2--------|
g-----4--4--------4------2-2----2---|      2 x
d--------4--------------------2-----|
a--2-----2-----2-------0------------|
E-----------------------------------|


Verse 1
  Bm    (g)            A  (g)           A    G   Em  Fm
e--------2------2----------0-----0---------------0--------|
b--------35-3------3------2---2-----2--0-2--3---0---2----|
g-----4--4--------4------2-2-2-----2---------------0---2--|
d--------4------------------------------------------------|
a--2-----2-----2-------0--------0-------0-----------------|
E--------------------------------------------3-2-0---2----|
[ Tab from: http://www.guitaretab.com/a/asp/115316.html ]
   G          A4   D   A4/7 D*   G    A            A4
e---------------0--2---3----2----3----0-----0-------------|
b--0-2-3--3--3----3---3----3----3----2---2-----2--3------|
g--------0-----------2---0----2----0----2-----2------2----|
d------------------0---2----4-----------------------------|
a-------------0-----------------------0----0-------0------|
E--3-----------------------------3------------------------|

  Bm    (g)           Fm  (g)
e--2-----2------2----------2------2----------|
b-------3-3--------3------2-2--------2------|
g-----4--4---4----4-----2--2---2----2--------|
d--------4-----------------4-----------------|
a--2-----2----2------------4-----------------|
E---------------------2----2-----2-----------|


  Bm  A/C# D   G    A             A4
e-------0---2----3--0------0--------------|
b---3---2---3----3--2----2-----2--3-------|
g---4---2---2----------2-----2------2-----|
d---------0-------------------------------|
a--2--4-------------0-----0-------0-------|
E--------------3--------------------------|

  Bm    (g)           Fm  (g)
e--2-----2------2----------2-----2---------|
b-------3-3--------3------2-2------2------|
g-----4--4---4----4-----2--2---2--2--------|
d--------4-----------------4---------------|
a--2-----2----2------------4---------------|
E---------------------2----2----2----------|
  Bm    (g)            A  (g)           A    G   Em  Fm
e--2-----2------2----------0-----0---------------0--------|
b--------35-3------3------2---2-----2--0-2--3---0---2----|
g-----4--4--------4------2-2-2-----2---------------0---2--|
d--------4------------------------------------------------|
a--2-----2-----2-------0--------0-------0-----------------|
E--------------------------------------------3-2-0---2----|


   G               A
e------------------0---|
b--0-2-3--3----3--2---|
g--------0-----------2-| Back to Verse (7 Verses), 7th time
d----------------------| after Fm to Ending
a------------------0---|
E--3----------3--------|

Ending

   G
e----------------------|
b--0-------------------|
g----------------------|
d----------------------|
a----------------------|
E--3-------------------|
Related for Mein Herz Erkennt Dich Immer tab