Song name
# A B C D E F G H I J K L M N O P Q R S T U V W X Y Z

Asphyxiated - Choices tab

Intro:

|--------------------------------------------------|
|--------------------------------------------------|
|--------------------------------------------------|
|--------------------------3-3-3-----3-3-----------|
|------3-3-3-----3-3----3-5-5-5-5-3-5-5------------|
|-0-3-5-5-5-5-3-5-5--------------------------------|

Verse:

|-------------------------------------------|
|-------------------------------------------|
|-------------2--2--2--2--------------------|
|-4--4--4--4--2--2--2--2--2--2--2--2--------|
|-4--4--4--4--0--0--0--0--2--2--2--2--------|
|-2--2--2--2--------------0--0--0--0--------|

Chorus:
(down & up picks)
|-----------------------------------------------------------|
|-----------------------------------------------------------|
|-----------------2-2-2-2-2-2-2-2---------------------------|
|-4-4-4-4-4-4-4-4-2-2-2-2-2-2-2-2-2-2-2-2-2-2-2-2-----------|
|-4-4-4-4-4-4-4-4-0-0-0-0-0-0-0-0-2-2-2-2-2-2-2-2-----------|
|-2-2-2-2-2-2-2-2-----------------0-0-0-0-0-0-0-0-----------|
Tap to rate this tab
 
# A B C D E F G H I J K L M N O P Q R S T U V W X Y Z