Song name
# A B C D E F G H I J K L M N O P Q R S T U V W X Y Z

Assassin - Assassin tab

-----------0----------------------0----------------------0------------------|
------------0----------------------0----------------------0-----------------|
---------0---0----0---0---------0---0----0---0---------0---0----0---0-------|
--------2--------2---2---------2--------2---4---------2--------2---2--------|
-------2--------3---2---------2--------3---5---------2--------3---2---------|
-3-2-0---------0--------3-2-0---------0--------3-2-0---------0--------3-2-0-|

-----0------------0---------0-------0-------0-------0-------0-------3-2-2h3-|
------0----------3-3-------0-0-----0-0-----0-0-----0-0-----0-0-----3--------|
---0---0----0---0---0-----0---0---0---0---0---0---0---0---0---0---0---------|
--2--------2---4-----4---5-----5-5-----5-5-----5-5-----5-2-----2-0----------|
-2--------3---5---------7-------6-------5-------4-------3-------3-----------|
---------0------------------------------------------------------------------|

-2------0-------0-------0-------0-------0-------3-2-2h3-2-------------------|
--3----0-0-----0-0-----0-0-----0-0-----0-0-----3---------3------------------|
------0---0---0---0---0---0---0---0---0---0---0-----------------------------|
-----5-----5-5-----5-5-----5-5-----5-2-----2-0---------------2--------------|
----7-------6-------5-------4-------3-------3----------------2--------------|
-------------------------------------------------------------0--------------|

http://www.myspace.com/assassinthrashmetal
Tap to rate this tab
# A B C D E F G H I J K L M N O P Q R S T U V W X Y Z