Song name
# A B C D E F G H I J K L M N O P Q R S T U V W X Y Z

Assembly Language - Di Madutlan tab

Song: Di Madutlan
Band: Assembly Language
Tabbed by:L.G.T.

Intro
  Pm..      pm..      pm..      pm..
e|-------------------------------------------|
B|-------------------------------------------|
G|-----------9-9--9-~--4-4--4-~--7-7--7-~----|(play it twice)
D|-7-7--7-~--9-9--9-~--4-4--4-~-7-7--7-~----|
A|-7-7--7-~--7-7--7-~--2-2--2-~--5-5--5-~----|
E|-5-5--5-~----------------------------------|
   A5         E5         B5         D5
Then:
  Pm..
e|---------------------|-------|I
B|---------------------|-------|I
G|-----------7--9------|-------|I
D|-7-7--7-~--7--9--7-~-|-7-7---|I
A|-7-7--7-~--5--7--7-~-|-7-7---|I
E|-5-5--5-~--------5-~-|-5-5---|I
   A5         D5 E5 A5
Verse 1:
  Pm..............................
e|----------------------------------|
B|----------------------------------|
G|----------------------------------|
D|-7-7-7-7-7-7-7-7-7-7-7-7-7-7-7-7--|
A|-7-7-7-7-7-7-7-7-7-7-7-7-7-7-7-7--|
E|-5-5-5-5-5-5-5-5-5-5-5-5-5-5-5-5--|
   A5
    Kalisud ning wa tay higala

   Pm.............................
e|----------------------------------|
B|----------------------------------|
G|-9-9-9-9-9-9-9-9-9-9-9-9-9-9-9-9--|
D|-9-9-9-9-9-9-9-9-9-9-9-9-9-9-9-9--|
A|-7-7-7-7-7-7-7-7-7-7-7-7-7-7-7-7--|
E|----------------------------------|
   E5
     Porduy og wa gyuy kaduolan

   Pm.............................
e|----------------------------------|
B|----------------------------------|
G|-4-4-4-4-4-4-4-4-4-4-4-4-4-4-4-4--|
D|-4-4-4-4-4-4-4-4-4-4-4-4-4-4-4-4--|
A|-2-2-2-2-2-2-2-2-2-2-2-2-2-2-2-2--|
E|----------------------------------|
   B5
    Basin ugma kung dili mahapla

  Pm..............................
e|----------------------------------|
B|----------------------------------|
G|-7-7-7-7-7-7-7-7-7-7-7-7-7-7-7-7--|
D|-7-7-7-7-7-7-7-7-7-7-7-7-7-7-7-7--|
A|-5-5-5-5-5-5-5-5-5-5-5-5-5-5-5-5--|
E|----------------------------------|
   D5
    Nindot na e mata

Verse 2:
   Pm...    pm...    pm...    pm...
e|-------------------------------------|
B|-------------------------------------|
G|-------------------------------------|
D|-7--7--7--7--7--7--7--7--7--7--7--7--|
A|-7--7--7--7--7--7--7--7--7--7--7--7--|
E|-5--5--5--5--5--5--5--5--5--5--5--5--|
   A5
    Ambot pirmi man jud ko

   Pm...    pm...    pm...    pm...
e|-------------------------------------|
B|-------------------------------------|
G|-9--9--9--9--9--9--9--9--9--9--9--9--|
D|-9--9--9--9--9--9--9--9--9--9--9--9--|
A|-7--7--7--7--7--7--7--7--7--7--7--7--|
E|-------------------------------------|
   E5
     O.P og wala gyuy amigo

   Pm...    pm...    pm...    pm...
e|-------------------------------------|
B|-------------------------------------|
G|-4--4--4--4--4--4--4--4--4--4--4--4--|
D|-4--4--4--4--4--4--4--4--4--4--4--4--|
A|-2--2--2--2--2--2--2--2--2--2--2--2--|
E|-------------------------------------|
   B5
     Mangamiga pero wa say ganahan

   Pm...    pm...
e|-------------------------------------------|
B|-------------------------------------------|
G|-7--7--7--7--7--7--7--7--7--7--7--7--7--7--|
D|-7--7--7--7--7--7--7--7--7--7--7--7--7--7--|
A|-5--5--5--5--5--5--5--5--5--5--5--5--5--7--|
E|-------------------------------------------|
   D5
    Deadma silang tanan

Chorus:
e|---------------------------------------------|
B|---------------------------------------------|
G|-----------------4--4-4--7--7--7--7--4--4-4--|
D|-------7--7-7----4--4-4--7--7--7--7--4--4-4--|
A|-------7--7-7----2--2-2--5--5--5--5--2--2-2--|
E|-------5--5-5--------------------------------|
  Tawgon kung muoban mubalibad kay kuan

e|--------------------------------------------|
B|--------------------------------------------|
G|-----------------4--4-4-7--7--7--7--4--4-4--|
D|-------7--7-7----4--4-4-7--7--7--7--4--4-4--|
A|-------7--7-7----2--2-2-5--5--5--5--2--2-2--|
E|-------5--5-5-------------------------------|
    Mahurot imung kusog sige lang kog pamugos

e|---------------------------------------------------------------|
B|---------------------------------------------------------------|
G|------------------------4-4-4-4-4-4-4-4-----7-7-7-7---7-9------|
D|----7-7-7-7-7-7-7-7-----4-4-4-4-4-4-4-4-----7-7-7-7---7-9--7---|
A|----7-7-7-7-7-7-7-7-----2-2-2-2-2-2-2-2-----5-5-5-5---5-7--7---|
E|----5-5-5-5-5-5-5-5----------------------------------------5---|
  Kay porduy bisan pag  magpakilouy        dili na sila madutlan

Verse 3:(do the verses tabs)

  Kalisud ning mahigugma
  Kung batig nawng dili gyud kapurma
  Basin ugma wala nato damha
  Maka uyab nata

Verse 4:(dothe verses tabs)

  Ambot permi man lang ila
  Tsugi man gud ko sa eksina
  Manguyab bisan wala gyuy ganahan
  Deadma silang tanan

(Repeat Chorus:)

Bridge:
(Strum once)
    A              E                 Bm                   D
e|--0--------------------------------2--------------------2-----------------|
B|--2--------------0-----------------3--------------------3-----------------|
G|--2--------------1-----------------4--------------------2-----------------|
D|--2--------------2-----------------4--------------------0-----------------|
A|--0--------------2-----------------2--------------------------------------|
E|-----------------0-----------------X--------------------------------------|
  Sukad pa sa una wa na jud ko tagda luoy lang ning dughan imung gipasagdan

    A              E                 Bm                   D
e|--0--------------------------------2--------------------2-----------------|
B|--2--------------0-----------------3--------------------3-----------------|
G|--2--------------1-----------------4--------------------2-----------------|
D|--2--------------2-----------------4--------------------0-----------------|
A|--0--------------2-----------------2--------------------------------------|
E|-----------------0-----------------X--------------------------------------|
  Naghuwat ko nimo luoy na kaayo    wala koy laing bisyo kundi maibog nimu
    Pm..          pm..              pm..               pm..
e|--------------------------------------------------------------------------|
B|--------------------------------------------------------------------------|
G|-----------------9-9--9-~---------4-4--4-~-----------7-7--7-~-------------|
D|--7-7--7-~-------9-9--9-~---------4-4--4-~-----------7-7--7-~-------------|
A|--7-7--7-~-------7-7--7-~---------2-2--2-~-----------5-5--5-~-------------|
E|--5-5--5-~----------------------------------------------------------------|
  Pwertin demalasa di ko nimu gusto ngita jud kag gwapo bisag walay ayo

(Instrumental:)
(Repeat Chorus 3 times:)
Tap to rate this tab
 
# A B C D E F G H I J K L M N O P Q R S T U V W X Y Z