Song name
# A B C D E F G H I J K L M N O P Q R S T U V W X Y Z

Assembly Of Dust - Tavern Walker Live tab

Help us improve GuitareTab! Take a short survey!
Tavern Walker by Assembly of Dust (Live at the Paradise Rock Club Boston MA)

Tune Down Half Step

Chords Used
G (3,2,0,0,3,3)
D (x,0,0,2,3,2)chorus and (,x,5,5,5,7,5) verse
Em7#5 (0,3,2,0,3,x)
Asus4 (x,0,0,2,3,x)
C (x,3,5,5,5,3)
A# (x,1,3,3,3,1,)

Intro and Verse

---------------|
-----------5-3-|
-----------5-3-|
-5-55-3-33-5-3-|
---------------|
---------------|

He throws in this variation once in each verse (listen for it)

---------------5-|
---------------7-|
---------------7-|strum D and then go back into main riff
-5-55-3-33-5/7-7-|
---------------5-|
---------------x-|

End each verse with this

--------------------------|
--------------------------|
--------------------------|
-5-55-3-33-3/5-3/5-3/555--|
--------------------------|
--------------------------|

Chorus

G                      D                    Em7#5               Asus4
So it shall be- it will be written Like the chicken scratch and writing on
     G                                    D                Em7#5
this wall From dawn til dusk- from dark to daylight There a thousand
       Asus4               G
reasons we all come in the first place

Same progressions follow until this bridge before the solo-->C A# G

Solo is in Scale of C


http://www.assemblyofdust.com/index.cfm
Related for Tavern Walker Live tab